Zacznij systematycznie uczyć się grać na gitarze razem ze stroną Moja nauka - będziesz miał/miała do niej dostęp po zalogowaniu się w serwisie

Enola Gay - Turbo

Opracował -a: ksobkowicz,
Dodał -a: ksobkowicz,
Redaktor: Tomek Pietrzkowski,
Pochodzi z: http://www.chords.pl/
Data publikacji: 2018-05-06 10:48
 
Moja nauka


Ups, problem :-/
Zaloguj się Mój śpiewnik


INTRO

|-------------------------|
|-------------------------|
|--9-7-10-9-12-7-11/10----|
|-------------------------|
|--7-5-8--7-10-5-9/-8-----|
|-------------------------|

na końcu

|----------|
|----------|
|--9-------|
|----------|
|--7-------|
|----------|


RIFF

|-------------------------|-------------------|
|-------------------------|-------------------|
|-------------------------|-------------------|
|-2--x2x2x--4-5----(x3)---|-2--x2x2x--4-3-----|
|-2--x2x2x--2-3-----------|-2--x2x2x--2-1-----|
|-0--x0x0x----------------|-0--x0x0x----------|

RIFF 2

|-------------------------------------|
|-------------------------------------|
|-------------------------------------|
|-------------------------------------|
|-3x3x3--2222---3x3x3x2x3-555444------|
|-1x1x1x-0000---1x1x1x0x1-333222------|

na zakonczenie

|-------------------------|
|-------------------------|
|-------------------------|
|-------------------------|
|-3-2-3-22222-------------|
|-1-0-1-00000-------------|
Dodał: ksobkowicz, 2018-06-18 13:03
Opracowania video z komentarzy

Dodaj komentarz ...i/lub link do filmiku video

Zaloguj się do serwisu
Wszelkie materiały i wypowiedzi zamieszczone na www.chords.pl są własnością ich autorów.