Zacznij systematycznie uczyć się grać na gitarze razem ze stroną Moja nauka - będziesz miał/miała do niej dostęp po zalogowaniu się w serwisie

Ti amo - Umberto Tozzi

Opracował -a: Łukasz (Chłodny),
Redaktor: Miłosz,
Pochodzi z: http://www.chords.pl
Data publikacji: 2008-12-29 20:20
 
Moja nauka


Ups, problem :-/
Zaloguj się Mój śpiewnik



Umberto Tozzi - Ti Amo
Copyright by LoDy

Standard tuning (EADGhe)

Intro:
     A-dur              fis-mol
e|----------------------(2)-------------|
h|-----2-------2-3-2-----2-------2-3-2--|
G|-----2--4-2------------2--4-2---------|
D|-----2-----------------4--------------| x2
A|-----0-----------------4--------------|
E|-----------------------2--------------|

Zanim jeszcze zacznie śpiewać:
     A-dur
e|-----------------------------|
h|-----2-------------------2---|
G|-----2--4-4-4-2----4-4-4-2---|
D|-----2-------------------2---|
A|-----0-------------------0---|
E|-----------------------------|

Zwrotka\Refren:

     A-dur              fis-mol         h-mol                  E-dur
e|---------------------(2)---------------(2)--------------------------------------|
h|----2-------2-3-2-----2-------2-3-2-----3----------------------5-----------5----|
G|----2--4-2------------2--4-2------------4--4/6-4---4-6-4-----4---4-------4---4--|
D|----2-----------------4-----------------4------------------6-------6---6------6-|
A|----0-----------------4-----------------2----------------7-----------7----------|
E|----------------------2---------------------------------------------------------|

Dodaj komentarz ...i/lub link do filmiku video

Zaloguj się do serwisu
Ostatnie komentarze
1.
plej
2010-05-06 17:35
prosze inna tonacja dla tych ktorzy nie potrafia jeszcze dobrze barowych: C - a - F - G i tak cala piosenka a tu tekst przerobki polskiej: C - Ti Amo o świcie a - Ti Amo, o zmierzchu F - Ti Amo. O każdej G - godzinie, minucie, sekundzie tak samo, Ti Amo szeptałaś Ti Amo, wyznałaś Ti Amo. Mówiły Twe oczy, Twe ręce, Twe usta namiętnie. Gdy nocą anielską twarz złotą, patrzyłem jak niebo wierzyłem w jej słowa nie wiedząc dlaczego a dzisiaj... Pytam się gdzie jest mój anioł, dokąd odfrunął z mych ramion, czy mam go szukać gdzieś w niebie, by na zawsze mieć dla siebie jej... Ti Amo o świcie Ti Amo, o zmierzchu Ti Amo Kiedy zasypiam i kiedy budzę się rano znów... Pytam się gdzie jest mój anioł, dokąd odfrunął z mych ramion, czy mam go szukać gdzieś w niebie, by na zawsze mieć dla siebie jej... Ti Amo za zapach Twój Amo, za każdy gest Amo, za uśmiech słońca na twarzy spełnionych świat marzeń Pytam się gdzie jest mój anioł, dokąd odfrunął z mych ramion czy mam go szukać gdzieś w niebie, by na zawsze mieć dla siebie jej... Ti Amo... Kochanie Ti Amo... Kochanie Ti Amo Ti Amo x5 Pytam się gdzie jest mój anioł, dokąd odfrunął z mych ramion czy mam go szukać gdzieś w niebie, by na zawsze mieć dla siebie jej... Gdy nocą anielską twarz złotą, patrzyłem jak niebo wierzyłem w jej słowa nie wiedząc dlaczego, a dzisiaj... Pytam się gdzie jest mój anioł, dokąd odfrunął z mych ramion czy mam go szukać gdzieś w niebie, by na zawsze mieć dla siebie jej... Ti Amo o świcie Ti Amo, o zmierzchu Ti Amo. O każdej godzinie, minucie, sekuncie tak samo Ti Amo
Wszelkie materiały i wypowiedzi zamieszczone na www.chords.pl są własnością ich autorów.