Zacznij systematycznie uczyć się grać na gitarze razem ze stroną Moja nauka - będziesz miał/miała do niej dostęp po zalogowaniu się w serwisie

Smutny - Vintage

Opracował -a: petlica,
Dodał -a: petlica,
Redaktor: petlica,
Pochodzi z: http://www.chords.pl
Data publikacji: 2011-01-17 22:07
 
Moja nauka


Ups, problem :-/
Zaloguj się Mój śpiewnik



Strój półtonu obniżony

Verse

|-------------------------|-------------------------|
|-------------------------|-------------------------|
|-------0-----------0-----|-------0-----------0-----|
|-----2---2-------0---0---|-----2---2-------2---2---|
|---2-------2---2-------2-|---3-------3---3-------3-|
|-0-----------0-----------|-0-----------0-----------|


|-------------------------|-------------------------|
|-------1-----------1-----|-------0-----------------|
|-----0---0-------0---0---|-----2---2-------0-----0-|
|---2-------2---2-------2-|---1-------1---2-----1---|
|-0-----------0-----------|-2-----------3-----2-----|
|-------------------------|-------------------------|

                              ....................1.   .....................2.
|-------------------------|-------------------------|-------------3-----------|
|-------1-----------1-----|-------0-----------0-----|-------0-----0-----------|
|-----0---0-------0---0---|-----2---2-------2---2---|-----2---2---2-----------|
|---2-------2---2-------2-|---1-------1---1-------1-|---1-------1-1-----------|
|-0-----------0-----------|-2-----------2-----------|-2-----------2-----------|
|-------------------------|-------------------------|-------------------------|



Ref

|-------------------------|-------------------------|
|-------------------------|-------------------------|
|-------0-----------0-----|-------0-----------0-----|
|-----2---2-------0---0---|-----2---2-------2---2---|
|---2-------2---2-------2-|---3-------3---3-------3-|
|-0-----------0-----------|-0-----------0-----------|


|-------------------------|-------------------------|-------------3-----------|
|-------------------------|-------2-----------------|-------0-----0-----------|
|-------0-----------0-----|-2-----2-----------------|-----2---2---2-----------|
|-----2---2-------0---0---|-2-----2-----------------|---1-------1-1-----------|
|---2-------2---2-------2-|-0-----------0-----------|-2-----------2-----------|
|-0-----------0-----------|-------------------------|-------------------------|


Wokaliza

|------------------|------------------|------------------|------------------|
|--7/8--7----------|-7/8--7-----------|------------------|------------------|
|----------7--7/9--|---------7--7/9---|-8/9--7--4--4/5---|-(5)--------------|
|------------------|------------------|------------------|------------------|
|------------------|------------------|------------------|------------------|
|------------------|------------------|------------------|------------------|


End

|-------------------------|-------------------------|------0-----------|
|-------------------------|-------------------------|-----0------------|
|-------0-----------0-----|-------0-----------0-----|----0-------------|
|-----2---2-------0---0---|-----2---2-------2---2---|---2--------------|
|---2-------2---2-------2-|---3-------3---3-------3-|--2---------------|
|-0-----------0-----------|-0-----------0-----------|-0----------------|

pozdr

Dodaj komentarz ...i/lub link do filmiku video

Zaloguj się do serwisu
Wszelkie materiały i wypowiedzi zamieszczone na www.chords.pl są własnością ich autorów.