Zacznij systematycznie uczyć się grać na gitarze razem ze stroną Moja nauka - będziesz miał/miała do niej dostęp po zalogowaniu się w serwisie

Dżaga (tab) - Virgin

Opracował -a: kaniaes,
Dodał -a: kaniaes,
Redaktor: petlica,
Pochodzi z: http://www.chords.pl
Data publikacji: 2010-03-11 13:55
 
Moja nauka


Ups, problem :-/
Zaloguj się Mój śpiewnik


Metronom ustawiamy na tempo 165.

Kolejność gry:

Intro            2x
Zwrotka I        2x
Intro            1x
Zwrotka I        2x
Przejście        1x
Refren           1x
Tu mamy pauze w grze.
Przejście II     1x
Zwrotka II       1x
Zwrotka I        2x
Przejście        1x
Refren II        1x
Zakończenie      1x



                        Intro:
uwagi:
/ - zjeżdżamy z progu: 5 na 3
                       5 na 3

E||-10-10-12-12-14-|-9--10-9--12-12-12-|-7-7-9-9-10-|
H||-10-10-10-10-10-|-10-10-10-10-10-10-|-7-7-7-7-7--|
G||----------------|-------------------|------------|
D||----------------|-------------------|------------|
A||----------------|-------------------|------------|
E||----------------|-------------------|------------|


E||-5-5-5-5/3-3-3-|-2-3-2-|-------------|-3-3-3-3-3-3-|
H||-5-5-5-5/3-3-3-|-3-3-3-|-2-2-2-2-2-2-|-3-3-3-3-3-3-|
G||---------------|-2-2-2-|-2-2-2-2-2-2-|-------------|
D||---------------|-------|-2-2-2-2-2-2-|-------------|
A||---------------|-------|-------------|-2-2-2-2-2-2-|
E||---------------|-------|-------------|-3-3-3-3-3-3-|

E||-------------||
H||-2-2-2-2-2-2-||
G||-2-2-2-2-2-2-||
D||-2-2-2-2-2-2-||
A||-------------||
E||-------------||




                        Zwrotka:
uwagi:
*- tłumione dźwięki
x- tłumiona struna

E||-------------------------|-----------------|-----------------|
H||-------------------------|-----------------|-----------------|
G||-------------------------|-----------------|-----------------|
D||-------------------------|-----------------|-----------------|
A||-12-12-12-12-12-12-12-12-|-7-7-7-7-7-7-7-7-|-9-9-9-9-9-9-9-9-|
E||-9--9--9--9--9--9--9--9--|-5-5-5-5-5-5-5-5-|-7-7-7-7-7-7-7-7-|
    *  *  *  *  *  *  *  *    * * * * * * * *   * * * * * * * *


E||-----------------||
H||-----------------||
G||-----------------||
D||-----------------||
A||-5-5-5-5-5-5-5-5-||
E||-3-3-3-3-3-3-3-3-||
    * * * * * * * *

E||-------------------------|-----------------|-----------------|
H||-------------------------|-----------------|-----------------|
G||-------------------------|-----------------|-----------------|
D||-------------------------|-----------------|-----------------|
A||-12-12-12-12-12-12-12-12-|-7-7-7-7-7-7-7-7-|-9-9-9-9-9-9-9-9-|
E||-9--9--9--9--9--9--9--9--|-5-5-5-5-5-5-5-5-|-7-7-7-7-7-7-7-7-|
    *  *  *  *  *  *  *  *    * * * * * * * *   * * * * * * * *


E||-----------------||
H||-----------------||
G||-----------------||
D||-----------------||
A||-5--5--x--5--5---||
E||-3--3--x--3--3---||
    *  *  *  *  *

                        Przejście:
uwagi:
/ - zjeżdżamy z progu:7 na 5
                      5 na 3

E||-------------------------|---------------------------------||
H||-------------------------|---------------------------------||
G||-------------------------|---------------------------------||
D||-------------------------|---------------------------------||
A||-7-7-7-7-7-7/5-5-5-5-5-5-|-7-7-7-7-7-7-9-9-9-9-10-10-10-10-||
E||-5-5-5-5-5-5/3-3-3-3-3-3-|-5-5-5-5-5-5-7-7-7-7-8--8--8--8--||



                         Refren:



E||-------------------------|-----------------|-----------------|
H||-------------------------|-----------------|-----------------|
G||-------------------------|-----------------|-----------------|
D||-------------------------|-----------------|-----------------|
A||-12-12-12-12-12-12-12-12-|-7-7-7-7-7-7-7-7-|-9-9-9-9-9-9-9-9-|
E||-9--9--9--9--9--9--9--9--|-5-5-5-5-5-5-5-5-|-7-7-7-7-7-7-7-7-|


E||-----------------||
H||-----------------||
G||-----------------||
D||-----------------||
A||-5-5-5-5-5-5-5-5-||
E||-3-3-3-3-3-3-3-3-||


E||-------------------------|-----------------|--------|--------|
H||-------------------------|-----------------|--------|--------|
G||-------------------------|-----------------|--------|--------|
D||-------------------------|-----------------|--------|--------|
A||-12-12-12-12-12-12-12-12-|-7-7-7-7-7-7-7-7-|-224455-|--------|
E||-9--9--9--9--9--9--9--9--|-5-5-5-5-5-5-5-5-|--------|-335577-|


E||-------------------------|-----------------|-----------------|
H||-------------------------|-----------------|-----------------|
G||-------------------------|-----------------|-----------------|
D||-------------------------|-----------------|-----------------|
A||-12-12-12-12-12-12-12-12-|-7-7-7-7-7-7-7-7-|-9-9-9-9-9-9-9-9-|
E||-9--9--9--9--9--9--9--9--|-5-5-5-5-5-5-5-5-|-7-7-7-7-7-7-7-7-|


E||-----------------||
H||-----------------||
G||-----------------||
D||-----------------||
A||-5-5-5-5-5-5-5-5-||
E||-3-3-3-3-3-3-3-3-||


E||-------------------------|-----------------|-----------------|
H||-------------------------|-----------------|-----------------|
G||-------------------------|-----------------|-----------------|
D||-------------------------|-----------------|-----------------|
A||-12-12-12-12-12-12-12-12-|-7-7-7-7-7-7-7-7-|-9-9-9-9-9-9-9-9-|
E||-9--9--9--9--9--9--9--9--|-5-5-5-5-5-5-5-5-|-7-7-7-7-7-7-7-7-|


E||-----------------||
H||-----------------||
G||-----------------||
D||-----------------||
A||-5-5-5-5-5-5-5-5-||
E||-3-3-3-3-3-3-3-3-||












                            Przejście II:
Uwagi:
x- tłumiona struna

E||-----------------||
H||-----------------||
G||-----------------||
D||-----------------||
A||-5--5--x--5--5---||
E||-3--3--x--3--3---||







                             Zwrotka II:

Uwagi:
w drugiej części tłumimy
*- tłumimy

E||-------------------------|-----------------|-----------------|
H||-------------------------|-----------------|-----------------|
G||-------------------------|-----------------|-----------------|
D||-------------------------|-----------------|-----------------|
A||-12-12-12-12-12-12-12-12-|-7-7-7-7-7-7-7-7-|-9-9-9-9-9-9-9-9-|
E||-9--9--9--9--9--9--9--9--|-5-5-5-5-5-5-5-5-|-7-7-7-7-7-7-7-7-|


E||-----------------||
H||-----------------||
G||-----------------||
D||-----------------||
A||-5-5-5-5-5-5-5-5-||
E||-3-3-3-3-3-3-3-3-||


E||-------------------------|-----------------|-----------------|
H||-------------------------|-----------------|-----------------|
G||-------------------------|-----------------|-----------------|
D||-------------------------|-----------------|-----------------|
A||-12-12-12-12-12-12-12-12-|-7-7-7-7-7-7-7-7-|-9-9-9-9-9-9-9-9-|
E||-9--9--9--9--9--9--9--9--|-5-5-5-5-5-5-5-5-|-7-7-7-7-7-7-7-7-|
    *  *  *  *  *  *  *  *    * * * * * * * *   * * * * * * * *


E||-----------------||
H||-----------------||
G||-----------------||
D||-----------------||
A||-5--5--x--5--5---||
E||-3--3--x--3--3---||


E||-------------------------|-----------------|-----------------|
H||-------------------------|-----------------|-----------------|
G||-------------------------|-----------------|-----------------|
D||-------------------------|-----------------|-----------------|
A||-12-12-12-12-12-12-12-12-|-7-7-7-7-7-7-7-7-|-9-9-9-9-9-9-9-9-|
E||-9--9--9--9--9--9--9--9--|-5-5-5-5-5-5-5-5-|-7-7-7-7-7-7-7-7-|


E||-----------------||
H||-----------------||
G||-----------------||
D||-----------------||
A||-5-5-5-5-5-5-5-5-||
E||-3-3-3-3-3-3-3-3-||








                            Refren II:
Uwagi:
Jedyna różnica to taka, ze na końcu nie schodzimy tylko trzymamy
na 7-mym progu. Typowy akord septymowy przed zmianą tonacji.


E||-------------------------|-----------------|-----------------|
H||-------------------------|-----------------|-----------------|
G||-------------------------|-----------------|-----------------|
D||-------------------------|-----------------|-----------------|
A||-12-12-12-12-12-12-12-12-|-7-7-7-7-7-7-7-7-|-9-9-9-9-9-9-9-9-|
E||-9--9--9--9--9--9--9--9--|-5-5-5-5-5-5-5-5-|-7-7-7-7-7-7-7-7-|


E||-----------------||
H||-----------------||
G||-----------------||
D||-----------------||
A||-5-5-5-5-5-5-5-5-||
E||-3-3-3-3-3-3-3-3-||


E||-------------------------|-----------------|--------|--------|
H||-------------------------|-----------------|--------|--------|
G||-------------------------|-----------------|--------|--------|
D||-------------------------|-----------------|--------|--------|
A||-12-12-12-12-12-12-12-12-|-7-7-7-7-7-7-7-7-|-224455-|--------|
E||-9--9--9--9--9--9--9--9--|-5-5-5-5-5-5-5-5-|--------|-335577-|


E||-------------------------|-----------------|-----------------|
H||-------------------------|-----------------|-----------------|
G||-------------------------|-----------------|-----------------|
D||-------------------------|-----------------|-----------------|
A||-12-12-12-12-12-12-12-12-|-7-7-7-7-7-7-7-7-|-9-9-9-9-9-9-9-9-|
E||-9--9--9--9--9--9--9--9--|-5-5-5-5-5-5-5-5-|-7-7-7-7-7-7-7-7-|


E||-----------------||
H||-----------------||
G||-----------------||
D||-----------------||
A||-5-5-5-5-5-5-5-5-||
E||-3-3-3-3-3-3-3-3-||


E||-------------------------|-----------------|-----------------|
H||-------------------------|-----------------|-----------------|
G||-------------------------|-----------------|-----------------|
D||-------------------------|-----------------|-----------------|
A||-12-12-12-12-12-12-12-12-|-7-7-7-7-7-7-7-7-|-9-9-9-9-9-9-9-9-|
E||-9--9--9--9--9--9--9--9--|-5-5-5-5-5-5-5-5-|-7-7-7-7-7-7-7-7-|

(akord septymowy)
E||-----------------||
H||-----------------||
G||-----------------||
D||-----------------||
A||-9-9-9-9-9-9-9-9-||
E||-7-7-7-7-7-7-7-7-||










                                   Refren III

uwagi:
gramy to samo tylko cały ton wyżej (lub dwa półtony) jak
kto woli. To jedno i to samo hehe
Kreskami oddzielałem serie taktów zeby było bardziej czytelnie,
to nadal ten długaśny refren to całe zakończenie.

E||-------------------------|-----------------|
H||-------------------------|-----------------|
G||-------------------------|-----------------|
D||-------------------------|-----------------|
A||-14-14-14-14-14-14-14-14-|-9-9-9-9-9-9-9-9-|
E||-12-12-12-12-12-12-12-12-|-7-7-7-7-7-7-7-7-|


E||-------------------------|-----------------|
H||-------------------------|-----------------|
G||-------------------------|-----------------|
D||-------------------------|-----------------|
A||-11-11-11-11-11-11-11-11-|-7-7-7-7-7-7-7-7-|
E||-9--9--9--9--9--9--9--9--|-5-5-5-5-5-5-5-5-|


E||-------------------------|-----------------|--------|--------|
H||-------------------------|-----------------|--------|--------|
G||-------------------------|-----------------|--------|--------|
D||-------------------------|-----------------|--------|--------|
A||-14-14-14-14-14-14-14-14-|-9-9-9-9-9-9-9-9-|-446677-|--------|
E||-12-12-12-12-12-12-12-12-|-7-7-7-7-7-7-7-7-|--------|-557799-|

-----------------------------------------------------------------


E||-------------------------|-----------------|
H||-------------------------|-----------------|
G||-------------------------|-----------------|
D||-------------------------|-----------------|
A||-14-14-14-14-14-14-14-14-|-9-9-9-9-9-9-9-9-|
E||-12-12-12-12-12-12-12-12-|-7-7-7-7-7-7-7-7-|


E||-------------------------|-----------------|
H||-------------------------|-----------------|
G||-------------------------|-----------------|
D||-------------------------|-----------------|
A||-11-11-11-11-11-11-11-11-|-7-7-7-7-7-7-7-7-|
E||-9--9--9--9--9--9--9--9--|-5-5-5-5-5-5-5-5-|


-----------------------------------------------------------------

E||-------------------------|-----------------|
H||-------------------------|-----------------|
G||-------------------------|-----------------|
D||-------------------------|-----------------|
A||-14-14-14-14-14-14-14-14-|-9-9-9-9-9-9-9-9-|
E||-12-12-12-12-12-12-12-12-|-7-7-7-7-7-7-7-7-|


E||-------------------------|-----------------|
H||-------------------------|-----------------|
G||-------------------------|-----------------|
D||-------------------------|-----------------|
A||-11-11-11-11-11-11-11-11-|-7-7-7-7-7-7-7-7-|
E||-9--9--9--9--9--9--9--9--|-5-5-5-5-5-5-5-5-|

-----------------------------------------------------------------

E||-------------------------|-----------------|
H||-------------------------|-----------------|
G||-------------------------|-----------------|
D||-------------------------|-----------------|
A||-14-14-14-14-14-14-14-14-|-9-9-9-9-9-9-9-9-|
E||-12-12-12-12-12-12-12-12-|-7-7-7-7-7-7-7-7-|


E||-------------------------|-----------------|
H||-------------------------|-----------------|
G||-------------------------|-----------------|
D||-------------------------|-----------------|
A||-11-11-11-11-11-11-11-11-|-7-7-7-7-7-7-7-7-|
E||-9--9--9--9--9--9--9--9--|-5-5-5-5-5-5-5-5-|


E||-------------------------|-----------------|--------|--------|
H||-------------------------|-----------------|--------|--------|
G||-------------------------|-----------------|--------|--------|
D||-------------------------|-----------------|--------|--------|
A||-14-14-14-14-14-14-14-14-|-9-9-9-9-9-9-9-9-|-446677-|--------|
E||-12-12-12-12-12-12-12-12-|-7-7-7-7-7-7-7-7-|--------|-557799-|


-----------------------------------------------------------------

E||-------------------------|-----------------|
H||-------------------------|-----------------|
G||-------------------------|-----------------|
D||-------------------------|-----------------|
A||-14-14-14-14-14-14-14-14-|-9-9-9-9-9-9-9-9-|
E||-12-12-12-12-12-12-12-12-|-7-7-7-7-7-7-7-7-|


E||-------------------------|-----------------|
H||-------------------------|-----------------|
G||-------------------------|-----------------|
D||-------------------------|-----------------|
A||-11-11-11-11-11-11-11-11-|-7-7-7-7-7-7-7-7-|
E||-9--9--9--9--9--9--9--9--|-5-5-5-5-5-5-5-5-|

------------------------------------------------------------------








                                 Zakończenie:

E||-------------------------|-----------------|
H||-------------------------|-----------------|
G||-------------------------|-----------------|
D||-------------------------|-----------------|
A||-14-14-14-14-14-14-14-14-|-9-9-9-9-9-9-9-9-|
E||-12-12-12-12-12-12-12-12-|-7-7-7-7-7-7-7-7-|


E||-------------------------|---------|---------|---||
H||-------------------------|---------|---------|---||
G||-------------------------|---------|---------|---||
D||-------------------------|---------|---------|-2-||
A||-11-11-11-11-11-11-11-11-|-7-7-7-7-|-7-7-7-7-|-2-||
E||-9--9--9--9--9--9--9--9--|-5-5-5-5-|-5-5-5-5-|-0-||
Dodał: kaniaes, 2010-03-11 13:55
Opracowania video z komentarzy

Dodaj komentarz ...i/lub link do filmiku video

Zaloguj się do serwisu
Wszelkie materiały i wypowiedzi zamieszczone na www.chords.pl są własnością ich autorów.