Zacznij systematycznie uczyć się grać na gitarze razem ze stroną Moja nauka - będziesz miał/miała do niej dostęp po zalogowaniu się w serwisie

Monte Verne - Wataha

Opracowali: filips699, kacperb2,
Dodał -a: kacperb2,
Redaktor: Seba,
Pochodzi z: http://www.chords.pl/
Data publikacji: 2012-10-15 08:41, Poprawiono 2017-04-20 19:24
 
Moja nauka


Ups, problem :-/
Zaloguj się Mój śpiewnik


Solo/zw/ref : A h D A E


e|---------------|-------------------------------|-------------------------------|
a|--------10--12-|12B-------------12BB12--10--10-|------------------------12B-12B|
d|----11---------|-------------------------------|-------------------------------|
g|---------------|-------------------------------|-------------------------------|
h|---------------|-------------------------------|-------------------------------|
e|---------------|-------------------------------|-------------------------------|

e|-------------------------------|-------------------------------|
a|12-----------------------------|12--12-------------------------|
d|------------------------11--13-|-------------------------------|
g|-------------------------------|-------------------------------|
h|-------------------------------|-------------------------------|
e|-------------------------------|-------------------------------|

e|10--------------10--9----------|-------------------------------|
a|------------------------12--10-|--------10h12h10---------------|
d|-------------------------------|----------------11---9---------|
g|-------------------------------|------------------------11--9--|
h|-------------------------------|-------------------------------|
e|-------------------------------|-------------------------------|

e|-------------------------------|-------------------------------|
a|-------------------------------|------------------------10--12-|
d|------------------------7--s11-|9-------------------11---------|
g|----------------7---9----------|-------------------------------|
h|11--9---7---9------------------|-------------------------------|
e|-------------------------------|-------------------------------|

e|-------------------------------|--------12---------------------|
a|12BB12--10------10-------------|12B--------B12------10---------|
d|------------11-----------------|-------------------------------|
g|-------------------------------|-------------------------------|
h|-------------------------------|-------------------------------|
e|-------------------------------|-------------------------------|

e|10--9---------------9----------|-------------------------------|
a|--------12--10--12------10--10-|-------------------------------|
d|-------------------------------|-------------------------------|
g|-------------------------------|-------------------------------|
h|-------------------------------|-------------------------------|
e|-------------------------------|-------------------------------|

e|-------------------------------|-------------------------------|
a|-------------------------------|-------------------------------|
d|9---7-------9---7--------------|----7-------------------7---7--|
g|--------7-----------7----------|7h9-----------------9----------|
h|-------------------------------|-------------------------------|
e|-------------------------------|-------------------------------|

e|-------------------------------|-------------------------------|
a|----10------10------10---------|-------------------------------|
d|11------11------11-------------|-------------------------------|
g|-------------------------------|-------------------------------|
h|-------------------------------|-------------------------------|
e|-------------------------------|-------------------------------|

Dodaj komentarz ...i/lub link do filmiku video

Zaloguj się do serwisu
Wszelkie materiały i wypowiedzi zamieszczone na www.chords.pl są własnością ich autorów.