Zacznij systematycznie uczyć się grać na gitarze razem ze stroną Moja nauka - będziesz miał/miała do niej dostęp po zalogowaniu się w serwisie

Urke - Wilki

Opracował -a: falcon,
Redaktor: Tomek Pietrzkowski,
Pochodzi z: http://www.chords.pl
Data publikacji: 2008-03-10 00:41
 
Moja nauka


Ups, problem :-/
Zaloguj się Mój śpiewnik



    E                 cis
e--------7--7~------------7--9s12---9-----
H---7h9-----9~--------7h9--------------9--
G-----------------------------------------
D-----------------------------------------
A-----------------------------------------
E-----------------------------------------


ref:
pijemy….      A cis

w przejściu (choć nie jestem pewien)
x2
e------------------------8------8------8------8-7--
H-------------------8-10---8-10---8-10---8-10------
G--------------------------------------------------
D----6--9------6-9---------------------------------
A-8---------8--------------------------------------
E--------------------------------------------------


ŻYCZĘ MIŁEGO GRANIA
POZDRAWIAM

[--xxxxx----x----x-------xxxx---xxxx---x----x--;]
[--x-------x-x---x------x------x----x--xx---x--;]
[--x----- x---x--x-----x------x------x-x-x--x--;]
[--xxxxx-xxxxxxx-x-----x------x------x-x--x-x--;]
[--x-----x-----x-x------x------x----x--x---xx--;]
[--x-----x-----x-xxxxxx--xxxx---xxxx---x----x--;]

Dodaj komentarz ...i/lub link do filmiku video

Zaloguj się do serwisu
Ostatnie komentarze
1.
petlica
2011-01-08 06:33
E|----------------------12--9-9---| H|-9h10-9-12-----9h10-9--9--9-9---| G|-9----9--9-----9----9-----------| D|--------------------------------| A|--------------------------------| E|--------------------------------|
2.
Tomassen
2009-05-11 19:43
E-|--------------------12-9- H-|-9h10p9-12---9h10p9------9-
Wszelkie materiały i wypowiedzi zamieszczone na www.chords.pl są własnością ich autorów.