Zacznij systematycznie uczyć się grać na gitarze razem ze stroną Moja nauka - będziesz miał/miała do niej dostęp po zalogowaniu się w serwisie

Bohema - Wilki

Opracowali: Radek Kucharski, ShadowneSS,
Pochodzi z: http://www.chords.pl
Data publikacji: 2005-01-30 00:44
 
Moja nauka


Ups, problem :-/
Zaloguj się Mój śpiewnik


Intro:
e-----------------------------------------------
H-----------------------------------------------
G-----0-----0-----------------------------------
D---2-----2-------------------------------------
A-0-----3-----3/6\2-2--6-5-3--6-5-3-0--0-6-5-3--
E-----------------------------------------------

e-----------------------------------------------
H-----------------------------------------------
G-----0-----0-----------------------------------
D---2-----2-------------------------------------
A-0-----3-----3/6\2-2--6-5-3--6-5-3-0-----------
E-----------------------------------------------

Zwrotka:
a h C a x2

Ref:
G a x2

W tle grane jest:
e-----------------------------------------
H-15-15-15-15-15-15-15-15-15-13-12--------
G----------------------------------12-----
D-----------------------------------------
A-----------------------------------------
E-----------------------------------------

e-12-12-12-12-12-12-12-12-12-10-9---------
H---------------------------------12------
G-----------------------------------------
D-----------------------------------------
A-----------------------------------------
E-----------------------------------------
Dodał: wojtek_n, 2017-01-04 22:39
Opracowania video z komentarzy

Dodaj komentarz ...i/lub link do filmiku video

Zaloguj się do serwisu
Ostatnie komentarze
1.
wojtek_n
2017-01-04 22:39
https://www.youtube.com/watch?v=xtIMr187FzA
2.
Seba
2009-05-17 16:31
zwrotkę powinno się grać atak: a h C e a....e moll niekoniecznie ale wydaje mi się że tam jest:) pozdrawiam:)
3.
rodzina123
2006-03-11 09:26
no to nie wchodź na nią !!! albo napisz wreszcie jakieś poprawne opracowanie - " mistrzu " ... bo jak na razie - to nic nie napisałeś , tylko krytykujesz ... a jak jesteś taaaaki zdolniacha - to sam potrafisz wybrać , co jest napisane ok ( bo przecież są i takie kawałki ) , a co źle ! jak się chcesz tak super poprawnie wszystkiego nauczyć - to sie zapisz do szkoły muzycznej - tam fachowcy uczą ... a jak sie sam uczysz dopiero ( tak piszesz ) - to nie oceniaj opracowań ludzi , którzy grają bardzo długo i sami już uczą innych gry ( a tacy też na tej stronie są ... ) nie uogólniaj ! strona nie jest do dupy ! niektóre opracowania takie są ! a może to twoje umiejętności takie własnie są ??? pozdrawiam !!!
4.
arcio
2006-03-11 08:44
ta strona jest do dupy
5.
gras
2005-09-30 19:35
albo mozna zwrotkę grać tak: a - h - c - G - a
6.
gras
2005-09-30 19:30
zwrotke gra się tak: a - H - c - G - a
7.
gras
2005-09-30 19:30
zwrotke gra się tak: a - H - c - G - a
8.
jurek133
2005-09-30 15:21
Mnie się wydaje, że zwrotkę powinno się grać a h C E a Co o tym sądzicie?
9.
DaX
2005-03-20 19:23
ludzie znam ten kawałek na pamieć i intro nie tak leci wogule!!!a w zwrotce jet a h7 C a 2x a potem refren a G 2x
10.
jool
2005-03-08 18:51
Sobie nastrój mandoline, to wyjdzie ;P
Wszelkie materiały i wypowiedzi zamieszczone na www.chords.pl są własnością ich autorów.