Zacznij systematycznie uczyć się grać na gitarze razem ze stroną Moja nauka - będziesz miał/miała do niej dostęp po zalogowaniu się w serwisie

Szklanka szaleństwa - Woobie Doobie

Opracował -a: Jakub Małecki,
Dodał -a: Jakub Małecki,
Redaktor: tobiaszek215,
Pochodzi z: http://www.chords.pl/
Data publikacji: 2017-11-24 21:33
 
Moja nauka


Ups, problem :-/
Zaloguj się Mój śpiewnik


Intro: riff 1 (F4 F F2 na strunach wiolinowych)

Zwrotka:
Stałem na... F Dm B2
Tyle szans... Dm G7/4 B2 C

Nigdy za późno... B2/G C

Ref.:
Szklankę szaleństwa... D B C (F5 G5)
Wiem to... B2 (riff 2)


riff 1:
 F4     F    F2
--6-----5-----3--
--6-----6-----6--
--5-----5-----5--
--x-----x-----x--
--x-----x-----x--
--x-----x-----x--


riff 2: (gitara elektryczna)
--10-12-13-13-----------------------------------
----------------13-11-10------------------------
-------------------------12/14-12-12-10/12\-----
------------------------------------------------
------------------------------------------------
------------------------------------------------


Akordy:
B2: X13311
G7/4: 330011
B2/G: 3X33X1
F5: 133XXX
G5: 355000
Dodał: Jakub Małecki, 2017-11-24 21:42
Opracowania video z komentarzy

Dodaj komentarz ...i/lub link do filmiku video

Zaloguj się do serwisu
Wszelkie materiały i wypowiedzi zamieszczone na www.chords.pl są własnością ich autorów.