Zacznij systematycznie uczyć się grać na gitarze razem ze stroną Moja nauka - będziesz miał/miała do niej dostęp po zalogowaniu się w serwisie

Wyjdu ja na woluszku - Arkona (Аркона)

Dodał -a: pirat21wieka,
Redaktor: Tomek Pietrzkowski,
Data publikacji: 2009-09-09 09:26
 
Moja nauka


Ups, problem :-/
Zaloguj się Mój śpiewnik
     A           E                    fis         D
E||--------------0-----------------|--2--------0--0-----------|
B||-----------2-----3h-5p-3p-2--0--|-----2--2--------3--2--0--|
G||--2--2--2-----------------------|--------------------------|
D||--------------------------------|--------------------------|
A||--------------------------------|--------------------------|
E||--------------------------------|--------------------------|


  A           E                    fis
--------------0-----------------|---------------------------|
-----------2-----3h-5p-3p-2--0--|------------3--2-0---0-2-3-|
--2--2--2-----------------------|-------------------2-------|
--------------------------------|--4--4---------------------|
--------------------------------|---------------------------|
--------------------------------|---------------------------|

wstęp, refren
A E fis D
A E fis

zwrotka
fis    h cis
fis    h E
A      D cis
fis    D [cis h] fis
Dodał: pirat21wieka, 2009-09-09 09:26
Opracowania video z komentarzy

Dodaj komentarz ...i/lub link do filmiku video

Zaloguj się do serwisu
Ostatnie komentarze
1.
pirat21wieka
2010-10-05 16:40
Poprawka: całość intra i refrenu leci A E fis D
Wszelkie materiały i wypowiedzi zamieszczone na www.chords.pl są własnością ich autorów.