Zacznij systematycznie uczyć się grać na gitarze razem ze stroną Moja nauka - będziesz miał/miała do niej dostęp po zalogowaniu się w serwisie

Facet to świnia - Big Cyc

Opracował -a: Macius_git,
Data publikacji: 2004-10-25 21:36
 
Moja nauka


Ups, problem :-/
Zaloguj się Mój śpiewnik


Zwrotka

3-3--5--7--8--10-10--10--12--7-7--5-5--3-3--10-10--8-8--7-7--5-5--
------------------------------------------------------------------
------------------------------------------------------------------
------------------------------------------------------------------
------------------------------------------------------------------
------------------------------------------------------------------


10-10-10-10-10--12--7--10---15-15-15-15--15-14--12-10--10-10--8-8-
------------------------------------------------------------------
------------------------------------------------------------------
------------------------------------------------------------------
------------------------------------------------------------------
------------------------------------------------------------------


-7--10-8-7-8-5----------------------------------------------------
------------------------------------------------------------------
------------------------------------------------------------------
------------------------------------------------------------------
------------------------------------------------------------------
------------------------------------------------------------------




Refren

7--7--7--5-3--5-3-2-0-2-3-0---7-7-7-7-5-0-5-7-5--3-3-3-3-3-5-7-5----
--------------------------------------------------------------------
--------------------------------------------------------------------
--------------------------------------------------------------------
--------------------------------------------------------------------
--------------------------------------------------------------------


Zwrotka I

G e C D
G e C D  C h C a

Pozostałe zwrotki

G e C a D
G e C a D C h C a

Refren

G e C a D

Dodaj komentarz ...i/lub link do filmiku video

Zaloguj się do serwisu
Ostatnie komentarze
1.
louie
2011-08-09 22:41
dokładnie tak jak mówi ratszym wszystko o pół tonu niżej.
2.
ratszym
2008-10-16 17:34
wg mnie to w orginale jest grane o pół tonu niżej..
3.
hard
2007-01-29 10:23
big cyc-facet to swinia
4.
rodzina123
2006-02-14 18:49
zgadzam się - dxwięki pasują - ale radę taką dam ( a jeszcze ich wiele mam ... ) - " NIE GRAJ NA JEDNEJ STRUNIE KOLEGO - BO TECHNIKĘ BĘDZIESZ MIAŁ DO NICZEGO " poważnie mówiąc - po to gitara ma kilka strun , zeby je wykorzystywać - należy od samego początku gry unikać grania melodii na jednej strunie - grajmy ekonomicznie - wykonując jak najmniej przesuwania ręką lewą po gryfie ... " GRA NA JEDNEJ STRUNIE TO ŚLEPA ULICZKA - PALCOWANIE PO KILKU - TECHNIKI ZALICZKA ..." pozdrawiam !
5.
tramffaj
2006-02-14 15:55
w refrenie jest błąd.. powinno być tak: 7--7--7--5-3--5-3-2-0-2-3-0---7-7-7-7-5-0-7-5--3-3-3-3-3-5-7-5---- ------------------------------------------------------------------ ------------------------------------------------------------------ ------------------------------------------------------------------ ------------------------------------------------------------------ ------------------------------------------------------------------
Wszelkie materiały i wypowiedzi zamieszczone na www.chords.pl są własnością ich autorów.