Zacznij systematycznie uczyć się grać na gitarze razem ze stroną Moja nauka - będziesz miał/miała do niej dostęp po zalogowaniu się w serwisie

Musimy coś zrobić - ComeYah

Opracował -a: krengiel,
Dodał -a: krengiel,
Redaktor: Tomek Pietrzkowski,
Pochodzi z: http://www.chords.pl/
Data publikacji: 2018-05-04 09:52
 
Moja nauka


Ups, problem :-/
Zaloguj się Mój śpiewnik


Na szybko wrzucam temat

wszystkie chwyty barre d, B (6 próg), g, A

   d-moll     B-dur     g-moll   A-dur
E|--------------------------------------|
H|-------6---------6--------3--------5--|
G|-----7---------7--------3--------6----|
D|---7---------8--------5--------7------|
A|-5------------------------------------|
E|-----------6--------3--------5--------|


   d-moll     B-dur     g-moll   A-dur
E|--------------------------------------|
H|-------6-5-------6--------3--------5--|
G|-----7---------7--------3--------6----|
D|---7---------8--------5--------7------|
A|-5------------------------------------|
E|-----------6--------3--------5--------|

Posłuchajcie to wszystko będzie jasne.

Pozdrawiam
Dodał: krengiel, 2018-05-04 09:52
Opracowania video z komentarzy

Dodaj komentarz ...i/lub link do filmiku video

Zaloguj się do serwisu
Wszelkie materiały i wypowiedzi zamieszczone na www.chords.pl są własnością ich autorów.