Zacznij systematycznie uczyć się grać na gitarze razem ze stroną Moja nauka - będziesz miał/miała do niej dostęp po zalogowaniu się w serwisie

Państwo B - Enej

Opracował -a: damian,
Dodał -a: damian,
Redaktor: Tomek Pietrzkowski,
Pochodzi z: http://www.chords.pl
Data publikacji: 2011-07-15 13:04
 
Moja nauka


Ups, problem :-/
Zaloguj się Mój śpiewnik
Intro 4x

E|---------------------------------------------------------------------|
H|---------------------------------------------------------------------|
G|-------------------------------------------------------------------- |
D|---------------------------------------------------------------------|
A|---------------5---------3-3---------------------5---------3-3-------|
E|---3--3---6-------1--1------1-1-------3--3--6---------1-1------------|


Zwrotka



E|--3-------1         --5--
H|--3-------1         --7--
G|--3-------2    3x   --7--
D|--5-------3         --7--
A|--5-------3         --5--
E|--3-------1         --5--


Refren


        2x
E|--3-------1-----6-----1-----5
H|--3-------1-----8-----3-----7
G|--3-------2-----8-----3-----7
D|--5-------3-----8-----3-----7
A|--5-------3-----6-----1-----5
E|--3-------1-----6-----1-----5


Solo
                  3x

E|----10----10----11----13-------10---8--6------------------------
H|-------11----11----11----11--11---10--8-------------------------
G|----------------------------------------------------------------
D|----------------------------------------------------------------
A|----------------------------------------------------------------
E|----------------------------------------------------------------


E|----10----10----11----13-----8----8-----10----------------------
H|-------11----11----11----11----10---10--10----------------------
G|----------------------------------------------------------------
D|----------------------------------------------------------------
A|----------------------------------------------------------------
H|----------------------------------------------------------------


I później refren i do końca ;)

Proszę bez komentarzy ,,do dupy'' i tego typu to jest moje pierwsze opracowanie i proszę to uszanować

Jeśli komuś się podoba proszę napisać wrzucę więcej ;)

Dodaj komentarz ...i/lub link do filmiku video

Zaloguj się do serwisu
Ostatnie komentarze
1.
damian
2011-07-16 23:36
jesli ktos to juz zagral prosilbym o napisanie tutaj jak wychodzi wam to bo jak dla mnie to jest to samo co oryginał
Wszelkie materiały i wypowiedzi zamieszczone na www.chords.pl są własnością ich autorów.