Zacznij systematycznie uczyć się grać na gitarze razem ze stroną Moja nauka - będziesz miał/miała do niej dostęp po zalogowaniu się w serwisie

Ocalić od zapomnienia - Marek Grechuta

Dodał -a: future6,
Redaktor: Michasel,
Data publikacji: 2010-02-05 14:56
 
Moja nauka


Ups, problem :-/
Zaloguj się Mój śpiewnik

     H.              H        E   E      H        E   S.T
E||---------------|------------------|--11----------------|
B||---------------|--------------13--|---------------13---|
G||---------------|------------------|--------------------|
D||---------------|------------------|--------------------|
A||---------------|------------------|--------------------|
E||---------------|------------------|--------------------|


   H        S. T S. T     H        E  S. T     H        Q
--10-------------8----|--11-----------8----|--10-------------|
----------------------|--------------------|-----------------|
----------------------|--------------------|-----------------|
----------------------|--------------------|-----------------|
----------------------|--------------------|-----------------|
----------------------|--------------------|-----------------|


  E   E   E   S.T  S.T  S.T     H        E.  T T     E   S.T  E   S.T  E   E
--8--10--11--16---16---15---|--15----------------|--13--15---16---------------|
----------------------------|--------------------|--------------------15--16--|
----------------------------|--------------------|---------------17-----------|
----------------------------|--------------------|----------------------------|
----------------------------|--------------------|----------------------------|
----------------------------|--------------------|----------------------------|


   H        E.  S     H        E  T S.     S.T  E   E   E   S.T  E
------------------|--------------------|-------13--15---------------|
------------------|--15----------------|--16-----------13--15---16--|
--17--------------|--------------------|----------------------------|
------------------|--------------------|----------------------------|
------------------|--------------------|----------------------------|
------------------|--------------------|----------------------------|


   H        E.  T T     E   S.T  E   S.T  E   E      H        E.  S
--------------------|------13---15--13---15--16--|--15--------------|
--15----------------|--16------------------------|------------------|
--------------------|----------------------------|------------------|
--------------------|----------------------------|------------------|
--------------------|----------------------------|------------------|
--------------------|----------------------------|------------------|


   E   E   E   S.T  S.T  S.T     H        E.  T T     E   E   E   S.T  E   E
--23--20--18--16---15---13---|--15----------------|--20--16--15--13---11--13--|
-----------------------------|--------------------|---------------------------|
-----------------------------|--------------------|---------------------------|
-----------------------------|--------------------|---------------------------|
-----------------------------|--------------------|---------------------------|
-----------------------------|--------------------|---------------------------|


   Q.     Q.         E   S.T  E   S S  S.T  S.T     H        E.  S
--15-------------|---------------15---15---13---|--13--------------|
-----------------|--13--15---16-----------------|------------------|
-----------------|------------------------------|------------------|
-----------------|------------------------------|------------------|
-----------------|------------------------------|------------------|
-----------------|------------------------------|------------------|


   E   S.T  S.T  S S  S.T  S S     H        S. T S. T     H        E  S. T
------10---11---13---13---11---|--11-------------8----|--11-----------8----|
--13---------------------------|----------------------|--------------------|
-------------------------------|----------------------|--------------------|
-------------------------------|----------------------|--------------------|
-------------------------------|----------------------|--------------------|
-------------------------------|----------------------|--------------------|


   H        S. T S. T     H        E  S. T     E  H        E
--10-------------8----|--11-----------8----|--10--------------||
----------------------|--------------------|------------------||
----------------------|--------------------|------------------||
----------------------|--------------------|------------------||
----------------------|--------------------|------------------||
----------------------|--------------------|------------------||


mam nadzieje że komuś się przyda :)
Dodał: future6, 2010-02-05 14:56
Opracowania video z komentarzy

Dodaj komentarz ...i/lub link do filmiku video

Zaloguj się do serwisu
Wszelkie materiały i wypowiedzi zamieszczone na www.chords.pl są własnością ich autorów.