Zacznij systematycznie uczyć się grać na gitarze razem ze stroną Moja nauka - będziesz miał/miała do niej dostęp po zalogowaniu się w serwisie

Pierestrojka w KGB - Jacek Kaczmarski

Dodał -a: letoatryda,
Redaktor: Tomek Pietrzkowski,
Pochodzi z: http://kaczmarski.art.pl
Data publikacji: 2008-08-07 11:03
 
Moja nauka


Ups, problem :-/
Zaloguj się Mój śpiewnik


        D

E|---------------2-------------------2-----------------------2-----------------------2--------------|
H|------------3-----3-------------3-----3-----------------3-----3-----------------3-----3-----------|
G|---------2-----------2-------2-----------2-----------2-----------2-----------2-----------2--------|
D|------0-------------------0-----------------------0----------------------0------------------------|
A|--------------------------------------------------------------------------------------------------|
E|--------------------------------------------------------------------------------------------------|
        W bezokiennych....


        h                                          G                    A     D

E|---------------2---------------------2--------------------3--------------------------2------------|
H|------------3-----3---------------3-----3--------------3-----3--------------------3-----3---------|
G|---------4-----------4---------4-----------4--------4-----------4--------2-----2-----------2------|
D|----------------------------4-----------------------------------------------0---------------------|
A|------2---------------------------------------------------------------0---------------------------|
E|-------------------------------------------------3------------------------------------------------|
        W ciszy co jak krzyk...


        D

E|---------------2-------------------2---------------------------2----------------------------2-----|
H|------------3-----3-------------3-----3---------------------3------3-----------------3-----3------|
G|---------2-----------2-------2-----------2-----------2----------------2-----------2-----------2---|
D|------0-------------------0-----------------------0----------------------------0------------------|
A|--------------------------------------------------------------------------------------------------|
E|--------------------------------------------------------------------------------------------------|
        Utraciła wszystkie  dzieci...

        h                                          G                      A     D

E|---------------2-----------------------2--------------------3--------------------------2----------|
H|------------3-----3-----------------3-----3--------------3-----3--------------------3-----3-------|
G|---------4-----------4-----------4-----------4--------4-----------4--------2-----2-----------2----|
D|------------------------------4-----------------------------------------------0-------------------|
A|------2-----------------------------------------------------------------0-------------------------|
E|-------------------------------------------------3------------------------------------------------|
        Tylko gdzieś w kotłowni...





        G                        D                       G                     D

E|----------------3-----------------------2-----------------------3---------------------2----------|
H|-------------3-----3-----------------3-----3-----------------3-----3---------------3-----3-------|
G|----------4-----------4-----------2-----------2-----------4-----------4---------2-----------2----|
D|-------------------------------0---------------------------------------------0-------------------|
A|-------------------------------------------------------------------------------------------------|
E|------3------------------------------------------------3-----------------------------------------|
        Pochylony nad...


        G                     D                     h                    A    D

E|---------------3---------------------2--------------------2--------------------------2-----------|
H|------------3-----3---------------3-----3--------------3-----3--------------------3-----3--------|
G|---------4-----------4---------2-----------2--------4-----------4--------2-----2-----------2-----|
D|----------------------------0-----------------------------------------------0--------------------|
A|--------------------------------------------------2--------------------0-------------------------|
E|------3------------------------------------------------------------------------------------------|
        Lejtnant Wania...

Dodaj komentarz ...i/lub link do filmiku video

Zaloguj się do serwisu
Wszelkie materiały i wypowiedzi zamieszczone na www.chords.pl są własnością ich autorów.