Zacznij systematycznie uczyć się grać na gitarze razem ze stroną Moja nauka - będziesz miał/miała do niej dostęp po zalogowaniu się w serwisie

Cisza (tab) - Kamil Bednarek

Opracował -a: kubiczewski,
Dodał -a: kubiczewski,
Redaktor: Seba,
Pochodzi z: http://www.chords.pl/
Data publikacji: 2013-04-17 15:37
 
Moja nauka


Ups, problem :-/
Zaloguj się Mój śpiewnik



intro:

e|-3/5-3----------------------5--3/5-3----------------------5-------|
h|-3/5-3-3/5-3----------------3--3/5-3-3/5-3----------------3-------|
g|-------2/4-2----------------2--------2/4-2----------------2-------|
d|-----------------5---5/7-5--4------------------5---5/7-5--4-------|
a|-------------5-7---7--------2--------------5-7---7--------2-------|
e|------------------------------------------------------------------|

zwrotka:

e|-7-7-7-7------7-------------------3-3-3-3-3-3--2-2-2-2-----|
h|-8-8-8-8/10\8-8--1-1-1-1-----1----3-3-3-3-3-3--3-3-3-3-----|
g|-9-9-9-7------9--0-0-0-0/2\0-0----0-0-0-0-0-0--4-4-4-2/4\2-|
d|-9-9-9-9------9--2-2-2-0-----2\0--0-0-0-0-0-0--4-4-4-4-----|
a|-7-7-7-7------7--3-3-3-3-----3----2-2-2-2-2-2--2-2-2-2-----|
e|----------------------------------3-3-3-3-3-3--------------|
Dodał: rafina, 2013-11-05 11:34
Opracowania video z komentarzy

Dodaj komentarz ...i/lub link do filmiku video

Zaloguj się do serwisu
Ostatnie komentarze
1.
jagodowa93
2014-01-29 17:15
Małe zmiany w tabulaturze. Wg mnie brzmi o wiele lepiej e-m C G h e|-7-7-7-7h10p7- 7-------------------3-3-3-3-3-3--2-2-2-2-----| h|-8-8-8-8-------8--1-1-1-1-----1----3-3-3-3-3-3--3-3-3-3h5p3-| g|-9-9-9-7-------9--0-0-0-0/2-0-0--0-0-0-0-0-0-0--4-4-4-2-----| d|-9-9-9-9-------9--2-2-2-0-----2--0-0-0-0-0-0-0--4-4-4-4-----| a|-7-7-7-7-------7--3-3-3-3-----3----2-2-2-2-2-2--2-2-2-2-----| e|-----------------------------------3-3-3-3-3-3--------------|
2.
pumba103
2014-01-23 23:50
e C G h :) zwrotka: e|-7-7-7-7------7-------------------3-3-3-3-3-3--2-2-2-2-----| h|-8-8-8-8/10-8-8--1-1-1-1-----1----3-3-3-3-3-3--3-3-3-3-----| g|-9-9-9-7------9--0-0-0-0/2-0----0-0-0-0-0-0--4-4-4-2/4-2---| d|-9-9-9-9------9--2-2-2-0-----2--0-0-0-0-0-0--4-4-4-4-------| a|-7-7-7-7------7--3-3-3-3-----3----2-2-2-2-2-2--2-2-2-2-----| e|----------------------------------3-3-3-3-3-3--------------|
3.
Sqrviwij
2013-12-29 03:11
No jak juz napisali,dobra rozpiska,ale dopisuj kolego akordy ,bo sa ludzie leniwi,jak np.ja ;)
4.
Yumise
2013-07-25 21:50
Świetne opracowanie. Pasuje idealnie. :)
5.
l4nce
2013-04-19 22:52
Najlepsza wersja tej piosenki :)
6.
jan163
2013-04-17 18:14
pasują w sam raz ;)
7.
jan163
2013-04-17 18:14
pasują w sam raz ;)
Wszelkie materiały i wypowiedzi zamieszczone na www.chords.pl są własnością ich autorów.