Zacznij systematycznie uczyć się grać na gitarze razem ze stroną Moja nauka - będziesz miał/miała do niej dostęp po zalogowaniu się w serwisie

Kocham Cię jak Irlandię (tab) - Kobranocka

Opracował -a: petlica,
Dodał -a: petlica,
Redaktor: petlica,
Pochodzi z: http://www.chords.pl
Data publikacji: 2011-08-16 09:06, Poprawiono 2011-08-16 09:08
 
Moja nauka


Ups, problem :-/
Zaloguj się Mój śpiewnik



Riff A
|-------------------------------------------------------------|
|-------1--------------1--------------1--------------3--------|
|----2-----2--------2-----2--------2-----2--------------------|
|-3----------3-0-2----------2-0-1----------1-0----5-----5-----|
|----------------------------------------------5----------5-0-|
|-------------------------------------------------------------|


|-------------------------------------------------------------|
|-------8--------------3-----------------1--------------------|
|----------8--------------3--------2--3----2-----0-0----------|
|----8-------8------3-------3---3------------3---2-2---0--2---|
|-6------------0-1------------0------------------3-3---0--3---|
|-------------------------------------------------------------|

Riff B
|-------------------------------------------------------------|
|--------1--------------1--------------1--------------3-------|
|----2-3---2--------2-3---2--------2-3---2--------------------|
|-3----------3-0-2----------2-0-1----------1-0----5-----5-----|
|----------------------------------------------5----------5-0-|
|-------------------------------------------------------------|


Riff C
|----------------------------------------------------0--------|
|-------3--------------3--------------3-----------------1-----|
|----4-----4--------4-----4--------4-----4--------2-------2---|
|-5----------5---4----------4---3----------3---2--------------|
|-------------------------------------------------------------|
|-------------------------------------------------------------|


|-------1--------------0-------------------------2-2--0--2----|
|----------1--------------1--------------3-------3-3--3--3----|
|----2-------2------0-------0------4--5----4-----2-2--2--2----|
|-3-----------------------------5------------5---0-0--0--0----|
|----------------3--------------------------------------------|
|-------------------------------------------------------------|

Riff D
|----------------------------------------------------0--------|
|-------3--------------3--------------3-----------------1-----|
|----4-----4--------4-----4--------4-----4--------2-------2---|
|-5----------5---4----------4---3----------3---2--------------|
|-------------------------------------------------------------|
|-------------------------------------------------------------|

Riff E (rozpisne tylko akordy)
|-------------------------------2------|-3------2-------------------0--0--0-----|
|-2---------2----------2--------3------|-3------3------2--3--5------0--0--0-----|
|-2---------1----------0--------2------|-0------2------2--2--2------1--2--1-----|
|-2---------2----------2--------4------|-0------0------2--2--2------2--2--2-----|
|-0---------0----------0--------2------|-2-------------0------------2--2--2-----|
|--------------------------------------|-3--------------------------0--0--0-----|

Riff F
|-------------------------------2---2--|
|-2---------2----------2--------3---5--|
|-2---------1----------0--------2---2--|
|-2---------2----------2--------4---4--|
|-0---------0----------0--------2---2--|
|--------------------------------------|

Riff G
|-------------------------------------------------|
|-------------------------------------------------|
|-2-----------2-----------2-----------------------|
|-2-----------2-----------2-----------------------|
|-0-----------0-----------0----0-2-2---2-4-5-4-2--|
|------3b(4)-------3b(4)--------------------------|

Riff G
|-------------------------------2---2--|--------|
|-2---------2----------2--------3---5--|-2------|
|-2---------1----------0--------2---2--|-1------|
|-2---------2----------2--------4---4--|-2------|
|-0---------0----------0--------2---2--|-0------|
|--------------------------------------|--------|
Dodał: Tomek Pietrzkowski, 2013-05-01 15:36
Opracowania video z komentarzy

Dodaj komentarz ...i/lub link do filmiku video

Zaloguj się do serwisu
Ostatnie komentarze
1.
RollingSon
2013-05-15 17:26
mógłby ktoś to jeszcze jakoś uporządkować?? bo dla początkujących trochę trudno to ogarnąć..
2.
Tomek Pietrzkowski
2013-05-01 15:36
http://www.youtube.com/watch?v=_qEolcLCab4
3.
rybazmarsa88
2012-01-15 17:41
ok już mam^^
4.
rybazmarsa88
2012-01-15 17:34
kapitalna robota stary!:) nie moge sie troche połapać w ktorym miejscu jest który riff , ale ogarne;)
5.
wera20014
2011-09-05 21:57
w końcu taby - bardzo ci dziękuję ;)
6.
nilmaker
2011-08-19 15:17
W koncu ktos to porzadnie zrobil :)
Wszelkie materiały i wypowiedzi zamieszczone na www.chords.pl są własnością ich autorów.