Zacznij systematycznie uczyć się grać na gitarze razem ze stroną Moja nauka - będziesz miał/miała do niej dostęp po zalogowaniu się w serwisie

Mikrofala - Mamy Czas

Opracował -a: Mamy Czas,
Dodał -a: Mamy Czas,
Redaktor: Tomek Pietrzkowski,
Pochodzi z: http://www.chords.pl/
Data publikacji: 2018-12-02 19:59
 
Moja nauka


Ups, problem :-/
Zaloguj się Mój śpiewnik


słowa: Tomasz Pietrzkowski
muzyka: Mamy Czas

# intro - riff x2
E|-------------------------5----|------------------------------|
B|---------5--6---6-------------|---------6--8---8---------6---|
G|-7----7--------------7--------|-7----7--------------7--------|
D|------------------------------|------------------------------|
A|------------------------------|------------------------------|
E|------------------------------|------------------------------|

E|------------------------------|------------------------------|
B|------6------5------------5---|-------------5------------5---|
G|-5-------5-------5----5-------|------5-----------------------|
D|------------------------------|-7-------7-------7----7-------|
A|------------------------------|------------------------------|
E|------------------------------|------------------------------|


# zwrotka 1
d                       d
  Rano szeptem do mnie mów
                     C
Witaj ciepłem swoich ust
                      a
Czego pragnę, ja już wiem
                         d
Przytul do mnie mocniej się

                    d
I na zawsze ze mną bądź
                       C
Chodźmy razem, podaj dłoń
                         a
Czy to słońce, czy nasz deszcz
                         d
Przytul do mnie mocniej się

# riff z intro x1

# zwrotka 2
Czy kolację u mnie zjesz?
Czy przeczytam Ci swój wiersz?
Czy rozmawiać ze mną chcesz?
Czy naprawdę kochasz mnie?

Czy ubierzesz rano mnie?
Czy przytulisz do mnie się?
Czy pokażesz mi swój świat?
Czy naprawdę kochasz mnie?

# bridge
d  |  F  |  E  |  F E


    # ref. 1
  a                         G    |
    Kiedy będziesz o mnie śnić   |
                            D    |
    Spójrz mi w oczy prosto i    |
                            D    |
    Powiedz, czy to jesteś Ty    |
                           a     |
    Czy naprawdę kochasz mnie    | x2  G D D

# riff z intro x1

# zwrotka 3
Pierwsze słowo, pierwszy gest
Uścisk dłoni pośród drzew
Pocałunek pełen drżeń
Zmieni Ciebie, zmieni mnie

Pierwsza bliskość, pierwszy smak
Zapach ciała, oczu blask
W jednej chwili wspólny cel
Zmieni Ciebie, zmieni mnie

# bridge

    # ref. 2
    Kiedy będziesz o mnie śnić   |
    Spójrz mi w oczy prosto i    |
    Powiedz, to co stało się     |
    Zmieni Ciebie, zmieni mnie   | x2

# solo 1
# solo 2

Dodaj komentarz ...i/lub link do filmiku video

Zaloguj się do serwisu
Wszelkie materiały i wypowiedzi zamieszczone na www.chords.pl są własnością ich autorów.