Zacznij systematycznie uczyć się grać na gitarze razem ze stroną Moja nauka - będziesz miał/miała do niej dostęp po zalogowaniu się w serwisie

Nothing else matters - Metallica

Dodał -a: Tomek Pietrzkowski,
Data publikacji: 2004-08-31 10:54
 
Moja nauka


Ups, problem :-/
Zaloguj się Mój śpiewnik


Utwór rozpisany jest na jedną gitarę. Poskładałem go z dostępnych w sieci
opracowań i własnych materiałów.

intro:
E||-----------0--------|-----------0--------|-----------0--------|
B||--------0-----0-----|--------0-----0-----|--------0-----0-----|
G||-----0-----------0--|-----0-----------0--|-----0-----------0--|
D||--------------------|--------------------|--------------------|
A||--------------------|--------------------|--------------------|
E||--0-----------------|--0-----------------|--0-----------------|



-----------0-----7--|--7--------7p0-------|--------7--8--7h8/5--|--7--5p3/2----|
--------0-----0-----|-----0-----0---0-----|--0-----0--0---------|--0--------5--|
-----0--------------|--------0---------0--|-----0---------------|--------------|
--------------------|---------------------|---------------------|--------------|
--------------------|---------------------|---------------------|--------------|
--0-----------------|--0------------------|--0------------------|--------------|



-----------2p0-------|-----------0--0--0--|--0----------3p0-----0--|
--5-----5------5-----|--------5-----5--5--|--5------5-------5---5--|
-----5------------5--|-----5--------5--5--|--5----5---5-------5-5--|
---------------------|--------------------|------------------------|
--0------------------|--0-----------0--2--|--3--3---------------3--|
---------------------|--------------------|------------------------|


                                 Harm----|
--0----------0h5p0---------|-------------12--------|-----------0--------|
--7------7---------7p0-0h5-|-----12--12------0-----|--------0-----0-----|
--7----7---7---------------|-----12-------------0--|-----0-----------0--|
---------------------------|-----------------------|--------------------|
--5--5---------------------|-----------------------|--------------------|
---------------------------|--0--------------------|--0-----------------|



----------0--------|-----------0--------|------------7------|------------------|
-------0-----0-----|--------0-----0-----|------------8------|--------7-------5-|
----0-----------0--|-----0-----------0--|----------9--------|--------7-------5-|
-------------------|--------------------|--------9----------|-----7-------5----|
-------------------|--------------------|------7------------|--5-------3-------|
-0-----------------|--0-----------------|--0----------------|------------------|



-----------7------|--------------------|------------7------|-------------------|
-----------8------|--------7--------5--|------------8------|--------7--------5-|
---------9--------|--------7--------5--|----------9--------|--------7--------5-|
-------9----------|-----7--------5-----|--------9----------|-----7--------5----|
-----7------------|--5--------3--------|------7------------|--5--------3-------|
-0----------------|--------------------|--0----------------|-------------------|



--------------------|-----------0--------|-----------0--------|
--------3--------4--|--------0-----0-----|--------0-----0-----|
--------4--------2--|-----0-----------0--|-----0-----------0--|
-----5--------4-----|--------------------|--------------------|
-----------2--------|--------------------|--------------------|
--3-----------------|--0-----------------|--0-----------------|



-----------3----0-------|--2----3-----0----------|
--------0---------0-----|---------3------3-------|
-----0--------0-----0---|-----------0------0-----|
------------------------|--0--0------------------|
------------------------|-------------3----------|
--0---------------------|--------------------3-2-|
1st    So close...
2nd    I Never...
3rd    Trust I...


-----------3----0-------|--2---------------------|
--------0---------0-----|-------3-----3----3-----|
-----0--------0-----0---|---------2h0----0-------|
------------------------|--0--0------------------|
------------------------|-------------3----------|
--0---------------------|--------------------3-2-|
       Couldn't be...
       Life is..
       Ev'ry day...


-----------3----0-------|--2----3-----3--------|
--------0---------0-----|---------3------3-----|
-----0--------0-----0---|-----------0-------0--|
------------------------|--0--0----------------|
------------------------|-------------3--------|
--0---------------------|----------------------|
        Forever...
        All these...
        Open mind...

                                             |1st, 2nd. end        |3rd end
-------3--0----2-------|--0--------0--------|-----------0---------|--0---------|
-------3--0------0-----|--------0-----0-----|--------0-----0------|--1------1--|
----0-----2------------|-----0-----------0--|-----0---------------|--0------1--|
-----------------------|--------------------|---------------------|--2------1--|
----------2--2---------|--------------------|---------------------|--3------0--|
-3---------------------|--0-----------------|--0--------------3-2-|------------|
       And nothing...                                                 C      A
       And nothing...
       And nothing...



Chorus:                                          x2
--2----2--2--2--0--2---3---2--|--0-------------|
--3----3--3--3--3--3---3---3--|--1------2------|
--2----2--2--2--2--2---2---2--|--0------2------|
--0----0--0--0--0--0---0---0--|--2------2------|
------------------------------|--3------0------|
------------------------------|----------------|
      Never cared...
      Never cared...


--2----2--2--2--|--0------------|-----------0--------|
--3----3--3--3--|--0------------|--------0-----0-----|
--2----2--2--2--|--0------------|-----0-----------0--|
--0----0--0--0--|--2------------|--------------------|
----------------|--2------------|--------------------|
----------------|--0------------|--0-----------------|
  oh...



-----------3----0-------|--2----3-----0----------|
--------0---------0-----|---------3------3-------|
-----0--------0-----0---|-----------0------0-----|
------------------------|--0--0------------------|
------------------------|-------------3----------|
--0---------------------|--------------------3-2-|
4th     So close....


-----------3----0-------|--2---------------------|
--------0---------0-----|-------3-----3----3-----|
-----0--------0-----0---|---------2h0----0-------|
------------------------|--0--0------------------|
------------------------|-------------3----------|
--0---------------------|--------------------3-2-|
       Couldn't be...


-----------3----0-------|--2----3-----3--------|
--------0---------0-----|---------3------3-----|
-----0--------0-----0---|-----------0-------0--|
------------------------|--0--0----------------|
------------------------|-------------3--------|
--0---------------------|----------------------|
        Forever...


--------3--0----2-------|--0--------0--------|--0-------------|
--------3--0------0-----|--------0-----0-----|--1------1------|
-----0-----2------------|-----0-----------0--|--0------1------|
------------------------|--------------------|--2------1------|
-----------2--2---------|--------------------|--3------0------|
--3---------------------|--0-----------------|----------------|
       And nothing...                           C      A



Chorus:                                          x2
--2----2--2--2--0--2---3---2--|--0-------------|
--3----3--3--3--3--3---3---3--|--1------2------|
--2----2--2--2--2--2---2---2--|--0------2------|
--0----0--0--0--0--0---0---0--|--2------2------|
------------------------------|--3------0------|
------------------------------|----------------|
      Never cared...
      Never cared...


--2----2--2--2--|--0------------|-----------0--------|
--3----3--3--3--|--0------------|--------0-----0-----|
--2----2--2--2--|--0------------|-----0-----------0--|
--0----0--0--0--|--2------------|--------------------|
----------------|--2------------|--------------------|
----------------|--0------------|--0-----------------|
  oh,..


Fill:
--12--------14--------|--15--------17--------|
------12--------12----|------12--------12----|
----------------------|----------------------|
----------------------|----------------------|
----------------------|----------------------|
----------------------|----------------------|



--8--------8--------|----------8--------|--0----------0-----|
-----5--------5-----|-------5-----5-----|-----1----------1--|
--------5--------5--|----5-----------5/-|--------0----------|
--------------------|-------------------|-------------------|
--------------------|-------------------|-------------------|
--------------------|-------------------|-------------------|



-0----------0-----|--0-7--------7--0--------|-----------0----|--12------14-----|
----8----------8--|--12--0---------12-0-----|--------0-------|------12------12-|
-------8----------|---------0------------0--|-----0----------|-----------------|
------------------|-------------------------|----------------|-----------------|
------------------|-------------------------|----------------|-----------------|
------------------|-------------------------|--0-------------|-----------------|


--15-------17--------|--8--------8--------|---------8--------|--0---------0----|
------12-------12----|-----5--------5-----|------5-----5-----|-----1---------1-|
---------------------|--------5--------5--|---5-----------5/-|--------0--------|
---------------------|--------------------|------------------|-----------------|
---------------------|--------------------|------------------|-----------------|
---------------------|--------------------|------------------|-----------------|



--0----------0-----|--0-7-------7-0-------|-----------0------|
-----3----------3--|------0---------0-----|--------0---------|
--------2----------|---------0---------0--|-----0------------|
-------------------|----------------------|------------------|
-------------------|----------------------|------------------|
-------------------|----------------------|--0---------------|



-----------3----0-------|--2----3-----0----------|
--------0---------0-----|---------3------3-------|
-----0--------0-----0---|-----------0------0-----|
------------------------|--0--0------------------|
------------------------|-------------3----------|
--0---------------------|--------------------3-2-|
5th    I Never..
6th    Trust I...


-----------3----0-------|--2---------------------|
--------0---------0-----|-------3-----3----3-----|
-----0--------0-----0---|---------2h0----0-------|
------------------------|--0--0------------------|
------------------------|-------------3----------|
--0---------------------|--------------------3-2-|
       Life is...
       Ev'ry day...


-----------3----0-------|--2----3-----3--------|
--------0---------0-----|---------3------3-----|
-----0--------0-----0---|-----------0-------0--|
------------------------|--0--0----------------|
------------------------|-------------3--------|
--0---------------------|----------------------|
        All these...
        Open mind...

                                             |5nd end              |6rd end
-------3--0----2-------|--0--------0--------|-----------0---------|--0---------|
-------3--0------0-----|--------0-----0-----|--------0-----0------|--1------1--|
----0-----2------------|-----0-----------0--|-----0---------------|--0------1--|
-----------------------|--------------------|---------------------|--2------1--|
----------2--2---------|--------------------|---------------------|--3------0--|
-3---------------------|--0-----------------|--0--------------3-2-|------------|
       And nothing..
       And nothing...



Chorus:                                          x4
--2----2--2--2--0--2---3---2--|--0-------------|
--3----3--3--3--3--3---3---3--|--1------2------|
--2----2--2--2--2--2---2---2--|--0------2------|
--0----0--0--0--0--0---0---0--|--2------2------|
------------------------------|--3------0------|
------------------------------|----------------|
      Never...
      Never...
      Never...
      Never...


--2----2--2--2--|--0------------|-----------0--------|
--3----3--3--3--|--0------------|--------0-----0-----|
--2----2--2--2--|--0------------|-----0-----------0--|
--0----0--0--0--|--2------------|--------------------|
----------------|--2------------|--------------------|
----------------|--0------------|--0-----------------|
  oh...


solo:
------------------------|
--15--------------------|
--14b---14r-12~---14-12-|
------------------------|
------------------------|
------------------------|



----------------------------------|--------12-------12-------------------|
----------------------------------|-----12-------12----15p12----12-------|
--11h12p11----11---------12-14-12-|--14b------14b------------15----15-14-|
-----------14----12-14~-----------|--------------------------------------|
----------------------------------|--------------------------------------|
----------------------------------|--------------------------------------|



---------------------------|--14/15--14~-----15--14~-15/17--|
----------14--14-13--------|-------------12-----------------|
--12r-----14--14-13-12/----|--------------------------------|
-------14------------------|--------------------------------|
---------------------------|--------------------------------|
---------------------------|--------------------------------|



--15-14h15p14/12----15-14---------------|--------------------12------------|
-----------------12-------12------------|--15-------------12-----15-15r-12-|
-------------------------------12-14-12-|--14r12----12-14b-----------------|
----------------------------------------|--------14------------------------|
----------------------------------------|----------------------------------|
----------------------------------------|----------------------------------|



----------------|--------------|---------------------|-----------------|
--15r-----------|--------------|--12h15p12/-------7/-|--5h7p5----------|
----------------|--------------|---------------------|-----------------|
----------------|--------------|---------------------|-----------------|
----------------|--------------|---------------------|-----------------|
----------------|--------------|---------------------|-----------------|



-----------3----0-------|--2----3-----0----------|
--------0---------0-----|---------3------3-------|
-----0--------0-----0---|-----------0------0-----|
------------------------|--0--0------------------|
------------------------|-------------3----------|
--0---------------------|--------------------3-2-|
7th     So close...


-----------3----0-------|--2---------------------|
--------0---------0-----|-------3-----3----3-----|
-----0--------0-----0---|---------2h0----0-------|
------------------------|--0--0------------------|
------------------------|-------------3----------|
--0---------------------|--------------------3-2-|
       Couldn't be...


-----------3----0-------|--2----3-----3--------|
--------0---------0-----|---------3------3-----|
-----0--------0-----0---|-----------0-------0--|
------------------------|--0--0----------------|
------------------------|-------------3--------|
--0---------------------|----------------------|
        Forever...


--------3--0----2-------|--0--------0--------|
--------3--0------0-----|--------0-----0-----|
-----0-----2------------|-----0-----------0--|
------------------------|--------------------|
-----------2--2---------|--------------------|
--3---------------------|--0-----------------|
       And nothing...




End:
-----------0-----7--|--7--------7h0-------|                     |
--------0-----0-----|-----0---------0-----|                     |  x4
-----0--------------|--------0---------0--|                     |
--------------------|---------------------|                     |
--------------------|---------------------|                     |
--0-----------------|--0------------------|                     |
                                                                |
                                                                |
--------7--8--7h-8h7/5-|--7--5/3-0--|--0--------0--------|      |
--------0--0-----------|--0---------|--------0-----0-----|      |
-----0-----------------|------------|-----0-----------0--|      |
-----------------------|------------|--------------------|      |
-----------------------|------------|--------------------|      |
--0--------------------|------------|--0-----------------|      |

-----------0-----7--|
--------0-----0-----|
-----0--------------|
--------------------|
--------------------|
--0-----------------|
Dodał: zz76zz, 2014-02-08 15:13
Opracowania video z komentarzy

Dodaj komentarz ...i/lub link do filmiku video

Zaloguj się do serwisu
Ostatnie komentarze
1.
ojsel
2014-10-14 15:39
Zarówno na elektryku, jak i klasyku brzmi bardzo dobrze.
2.
marcelinda234k
2014-10-13 21:43
Tego szukałam, dzięki
3.
lipagit
2013-10-01 18:37
No i kawalek całkiem spoczko, metrum to chyba 46 bpm... Czyli dość wolno, ale mie o szybkość tu chodzi tylko o precyzję. Pozdrawiam wszystkich serdecznie i gorąco!!! :))
4.
lipagit
2013-10-01 18:34
Cholera, nie wbilo sie jak powinno... sory :(((((((((
5.
grubcio009
2013-09-04 19:26
wiktoria to co na dole to jakaś podróba górna trudniejsza ale da sie zagrac
6.
Jakub Toczko
2013-03-20 19:19
o co chodzi z literkami w tabach ????
7.
peeping_tom
2013-02-19 17:15
@Wiktoria Sarniak, nie wiem kto pisał to coś niżej, ale albo to jest do innej piosenki, albo był ktoś nieźle zjarany i do tego nie potrafił poprawnie zapisać tabulatury. Z resztą nawet próbując to zagrać nie idzie. To co jest tutaj jest dobrze. Ewentualnie możesz nanieść te poprawki o jakich pisał karolen, szczególnie te z flażoletami.
8.
Wiktoria Sarniak
2013-02-09 14:45
Witam, dopiero się ucze grać, więc się narazie nie znam... Tutaj jest w tabulaturze zapisane: |--------7--8--7h8/5--|--7--5p3/2----| |--0-----0--0---------|--0--------5--| |-----0---------------|--------------| |---------------------|--------------| |---------------------|--------------| |--0------------------|--------------| lecz gdzie indziej znalazłam: |-0-------------------| |-------------------0-| |---------------------| |--0----------------5-| |---0---------------5-| |-----7-8-7-5-7-5-2-0-| Która wersja jest lepsza? Z góry dziękuję za pomoc ;)
9.
karolen
2011-04-27 18:27
|-------------12--------| |-----12--12------0-----| |-----12-------------0--| |-----------------------| |-----------------------| |--0--------------------| Tu jest błąd. Powinny być flażolety czyli: |-------------(12)--------| |----------(12)----0------| |--------(12)--------0----| |-------------------------| |-------------------------| |--0----------------------| A to... --12--------14--------|--15--------17--------| ------12--------12----|------12--------12----| ----------------------|----------------------| ----------------------|----------------------| ----------------------|----------------------| ----------------------|----------------------| --8--------8--------|---------8-------|--0--------0-----| -----5--------5-----|------5-----5----|-----1-------1---| --------5--------5--|----5---------5/-|--------0--------| --------------------|-----------------|-----------------| --------------------|-----------------|-----------------| --------------------|-----------------|-----------------| -0----------0-----|--0-7--------7--0--------| ----8----------8--|--12--0---------12-0-----| -------8----------|---------0------------0--| ------------------|-------------------------| ------------------|-------------------------| ------------------|-------------------------| ...ja gram tak: --12--------14--------|--15--------17--------| ------12--------12----|------12--------12----| ----------------------|----------------------| ----------------------|----------------------| ----------------------|----------------------| ----------------------|----------------------| --8--------8--------|---------8-------|--0--------0-----| -----5--------5-----|------5-----5----|-----1-------1---| --------5--------5--|----5---------5/-|--------0--------| --------------------|-----------------|-----------------| --0----------------0|-0---------------|-----------------| --------------------|-----------------|--3--------------| -0----------0-----|-0h7-------7h0-----------| ----3---------3---|-----0---------0---------| ------2-----------|-------0---------0-------| -0----------------|-------------------------| ------------------|-------------------------| ------------------|-0---------0-------------| Uważam, że moje opracowanie jest bardziej prawidłowe i lepiej brzmi, ale jakby były jakieś błędy to piszcie.:) Reszta opracowania jest chyba w porządku.
10.
Caazi
2011-04-06 15:11
--0----------0h5p0---------|-------------12--------|-----------0--------| --7------7---------7p0-0h5-|-----12--12------0-----|--------0-----0-----| --7----7---7---------------|-----12-------------0--|-----0-----------0--| ---------------------------|-----------------------|--------------------| --5--5---------------------|-----------------------|--------------------| ---------------------------|--0--------------------|--0-----------------| Witajcie, mam pytanko. Jak zagrać tą kombinację hammer on - pull off...? Bo próbuję i ciągle nie wychodzi. Jakby ktoś nagrał jakiś filmik byłoby oks :P
Wszelkie materiały i wypowiedzi zamieszczone na www.chords.pl są własnością ich autorów.