Zacznij systematycznie uczyć się grać na gitarze razem ze stroną Moja nauka - będziesz miał/miała do niej dostęp po zalogowaniu się w serwisie

Chodź, przytul, przebacz (intro tab) - Piaseczny, Andrzej

Opracował -a: Paweł B.,
Redaktor: petlica,
Data publikacji: 2009-04-04 11:17, Poprawiono 2009-04-04 11:27
 
Moja nauka


Ups, problem :-/
Zaloguj się Mój śpiewnik



Intro

E||-------0h2p0-----|-------0----------|-------0h2p0-------|
B||-----3-------3---|-----3---3--------|-----3-------3-----|
G||---2-----------2-|---2--------------|---2------------2--|
D||-0---------------|-0----------------|-------------------|
A||-----------------|------------4b5r4-|-2-----------------|
E||-----------------|------------------|-------------------|



--------0--------|---------0h2-0h2p0----|----------0-------|
-----3-----------|-------3-----------3--|-------3----------|
---2-------------|----0-----------------|----2-------------|
-----------------|----------------------|------------------|
-2---------------|----------------------|------------------|
-------------0-2-|-3--------------------|--2---------------|



-----------0---------|---------------------||
---------3---3-------|--2------------------||
-------2-------2-----|--2------------------||
-----2---------------|--2------------------||
--0---------------0--|--0------------------||
---------------------|---------------------||

jest to moje pierwsze opracowanie, więc proszę o łagodne traktowanie.
Wszelkie poprawki mile widziane :)

Dodaj komentarz ...i/lub link do filmiku video

Zaloguj się do serwisu
Ostatnie komentarze
1.
przEmek13572
2011-07-04 20:20
ja mam pytanko co to jest za przygrywka przed zwrotką?? wie ktoś może?? będę wdzięczny najlepiej jak by to było tak rozpisane jak tutaj;)pozderka;)
2.
Arkosss
2010-04-03 17:56
ogolnie fajnie alr w jednym miejscu nie brzmi tak jak powinno.... w kazdym razie ja tego nie slysze... wrzuccie wiecej troche tych piosenek bo nudyyyy
3.
Bartio1996
2009-10-24 22:05
wszystko ok , tylko tam gdze jest 2h0 2h0h2 to powinno byc samo to 2h0h2 /:D a tak to git :D
4.
rudy12338
2009-08-14 13:37
Jest spoko dawaj dalszą część:)!
5.
Zgredek98
2009-07-25 20:36
Nie, nie można, bo to nie jest 4h5, tylko 4b5. Pojedyncze kostkowanie czy palcowanie tych dźwięków nie zabrzmi tak samo jak podciągnięcie o pół tonu.
6.
Paweł B.
2009-07-23 21:46
zamiast 4h5 może być też 4 na strunie a, 0 na strunie d brzmienie to samo a o wiele łatwiej zagrać :)
7.
smolarek30
2009-04-30 14:31
jednak wszystko jest ok:-) poproszę dalszą część:-)
8.
smolarek30
2009-04-29 22:52
super opracowanie! tylko że tam jak jest to 0h2 0h2p0 wydaje mi się że zamiast tego pierwszego 0h2 powinno być coś innego... ale nie wiem... może to ja źle trochę gram... ogólnie spoko! pozdro!
Wszelkie materiały i wypowiedzi zamieszczone na www.chords.pl są własnością ich autorów.