Zacznij systematycznie uczyć się grać na gitarze razem ze stroną Moja nauka - będziesz miał/miała do niej dostęp po zalogowaniu się w serwisie

Blown to bits - The Exploited

Dodał -a: azpunk,
Redaktor: Seba,
Data publikacji: 2017-11-05 09:07
 
Moja nauka


Ups, problem :-/
Zaloguj się Mój śpiewnik
Zwr.
  e     ------------------------------------------------
  B     ------------------------------------------------
  G     ---7-9-9-9----7/9-9-9---7/9-9-9---12-12---11-11-
  D     ---7-9-9-9----7/9-9-9---7/9-9-9---12-12---11-11-
  A     ---5-7-7-7----5/7-7-7---5/7-7-7---10-10----9--9-
  E     ------------------------------------------------

Ref.

  e     ------------------------------------------------
  B     ------------------------------------------------
  G     ------------------------------------------------  x2
  D     --9-9-9-9-9-9-9-9---10-10-10-10-----7--7--7-----
  A     --9-9-9-9-9-9-9-9---10-10-10-10-----7--7--7-----
  E     --7-7-7-7-7-7-7-7----9--9--9--9-----5--5--5-----

Dodaj komentarz ...i/lub link do filmiku video

Zaloguj się do serwisu
Wszelkie materiały i wypowiedzi zamieszczone na www.chords.pl są własnością ich autorów.