Zacznij systematycznie uczyć się grać na gitarze razem ze stroną Moja nauka - będziesz miał/miała do niej dostęp po zalogowaniu się w serwisie

Pieśń o Marynie, co pierogów gotować nie umiała - Wańka Wstańka

Opracował -a: tomek2855,
Dodał -a: tomek2855,
Redaktor: Seba,
Pochodzi z: http://www.chords.pl/
Data publikacji: 2014-05-08 07:13
 
Moja nauka


Ups, problem :-/
Zaloguj się Mój śpiewnik
E|-------------|
B|-------------|
G|-4-------4---|    x3
D|-4---4---4---|
A|-2---4---2---|
E|-----2-------|

E|-----------------|
B|-----------------|
G|-4---6---8---6---|
D|-4---6---8---6---|
A|-2---4---6---4---|
E|-----------------|

E|-------------|
B|-------------|
G|-4-------4---|
D|-4---4---4---|
A|-2---4---2---|
E|-----2-------|

PS. W zależności od wersji akordy łapać o jeden półton wyżej.
Dodał: tomek2855, 2014-05-08 07:15
Opracowania video z komentarzy

Dodaj komentarz ...i/lub link do filmiku video

Zaloguj się do serwisu
Ostatnie komentarze
1.
kroska83
2014-05-13 14:51
Kapitalny kawałek!
Wszelkie materiały i wypowiedzi zamieszczone na www.chords.pl są własnością ich autorów.