Zacznij systematycznie uczyć się grać na gitarze razem ze stroną Moja nauka - będziesz miał/miała do niej dostęp po zalogowaniu się w serwisie

Wilcza Zamieć (Piosenka Priscilli) - Wiedźmin 3 Dziki Gon OST

Opracował -a: kolbe11,
Dodał -a: kolbe11,
Redaktor: Tomek Pietrzkowski,
Pochodzi z: http://www.chords.pl/
Data publikacji: 2019-12-08 20:49
 
Moja nauka


Ups, problem :-/
Zaloguj się Mój śpiewnik
Title: Priscilla - Wilcza Zamieć (Wolven Storm - The Witcher 3 OST)

Performace by EbolGra
TAB by Jarekmazurr

Tempo: 74
Capo: 5
STROJENIE (TUNING): Standard



WSTĘP (INTRO)

e|-------------------------------------------------------------------------------------------------------------------------|
H|--1---0---1---0---1---0---1---0---1----------------------1---0---1---0---1---0---1---0---1-----------3--------1---0------|
G|----------2---2---2---2---2---2---2---2------------------------------0---2------------------------------------0----------|
D|------2----------------------------------2---3---0---3-----------3---------------------------3-----------0---------------|
A|--0----------------------------------------------------------3-----------------------------------3-----------------------|
E|---------------------------------------------------------1---------------------------------------------------------------|



e|--------------------------------------------------------------------------------------------------------------------------|
H|--1---0---1---0---1---0---1---0---1----------------------1---0---1---0---1---0---1---0---1--------------0-----------------|
G|----------2---2---2---2---2---2---2---2------------------------------0---2-----------------------------2------------------|
D|------2----------------------------------2---3---0---3-----------3---------------------------3--------0-------------------|
A|--0----------------------------------------------------------3-----------------------------------3---2--------------------|
E|---------------------------------------------------------1----------------------------------------------------------------|


ZWROTKA 1 (VERSE 1)

    Na  szlak   moich  blizn      poprowadź    palec,     By   nasze    drogi spleść    gwiazdom na przekór.

e|--0---0----------0--------------------------------------0---0--------3-----------0---------------------------0-------------|
H|-----------------1---3----------0---1---0---1---0-----------1--------------3--3--------3-------0---1---3-------------------|
G|-------------2--------------0-----------0---2---0--------------------2--2--2-----0-----0-------0---0---0-----0-------------|
D|----------2--------------0--------------------0----0------------2-------------2------------2---------------2---------------|
A|------0--------------0--------------0-----------------------0--------0-----0-----------3---------------2-------------------|
E|---------------------------------------------------------------------------------------------------------------------------|



e|----------------------------------------------------------------------------------------------------------------------------|
H|--1-------0---1---0--------------1---0---1----3---1p0-------1---0---1---0---1---0---1---0---3-------1---0---1---------------|
G|--------------2-----------2--------------2----2-----------------2---2---2---2---2---2---2-----------------------------------|
D|----------2---------------2----------2----------2-2---------2-----------------------------------2---------------------------|
A|------3---------------3----------3----------------------0-----------------------------------0-------2---0---0---------------|
E|--1---------------0----------0----------------0-----------------------------------------------------------------------------|


REFREN  (CHORUS)


e|----------------0---------------------0-----------------------------0--------------0--------------0-------------------------|
H|-----0---1----------------0---1---3---------------------0---1---0---1-------3------1---0---1-----------------------3---0----|
G|--2--------------------2------2------------2----------2---------2-------2-------2------2-------2-----2---------2------------|
D|-------------2-----2------2-------2------2----2-----2-------3---------------3--------------3-------------3s6----------------|
A|---------0-------------0--------------0-----------0-------------------------------------------------------------------------|
E|----------------------------------------------------------------------------------------------------------------------------|




e|---------------0----------------------0------3-------------0--------------------------0-------------------------------------|
H|--------1-----------------0---1---3----------1------3-------------3-----0---1---3--------2---3---1---0---1---------0--------|
G|------2-----------2---2-------2---2--------------2------------2------2--2---2-------2----------------2-----------1----------|
D|----2------2--------------2---------------2------------2----------3-------------3------------2-----------------2------------|
A|--0-------------------0---------------0-------------0--------------------------------------------------------2--------------|
E|----------------------------------------------------------------------------------------------------------------------------|


ZWROTKA 2 (VERSE 2)


e|--0---0---------0--------------------------------------0---0------3-------------0-------------------------0-----------------|
H|----------------1---3--------0---1---0----1-----0----------1---------1---3------1---3---1---0---1---3-----------------------|
G|------------2-------------0----------0----2-----0-----------------2------2----------0------------------0--0-----------------|
D|---------2-------------0---------------------0-----0----------2--------------2----------2---2---2---2-----------------------|
A|------0-------------0------------0-------------------------0-------------0----------3---------------------------------------|
E|----------------------------------------------------------------------------------------------------------------------------|



e|----------------------------------------------------------------------------------------------------------------------------|
H|--1-------0---1---0--------------1---0---1----3---1p0-------1---0---1---0---1---0---1---0---3-------1---0---1---------------|
G|--------------2-----------2--------------2----2-----------------2---2---2---2---2---2---2-----------------------------------|
D|----------2---------------2----------2----------2-2---------2-----------------------------------2---------------------------|
A|------3---------------3----------3----------------------0-----------------------------------0-------2---0---0---------------|
E|--1---------------0----------0----------------0-----------------------------------------------------------------------------|


REFREN (CHORUS)



ZWROTKA 3 (VERSE 3)


e|---0--------0-----------------------------------------0---0------3---3---------0---0-----------------------0-----------------|
H|------------1---3--------0---1---0---1------0-------------1----------1---3-----1-------3-----0---1---3-----0-----------------|
G|---------2------------0--------------2---2------0----------------2---------------------------2---2---------------------------|
D|------2------------0-------------3----------------------------2-------------2-------------2-------------2--------------------|
A|---0------------0------------0--------------0-------------0--------------0-------------3-------------2-----------------------|
E|-----------------------------------------------------------------------------------------------------------------------------|



e|-----------------------------------------------------------------------------------------------------------------------------|
H|--1-------0---1---0--------------1---0---1----3---1p0-------1---0---1---0---1---0---1---0---3---1---0---2---0----------------|
G|--------------2-----------2--------------2----2-----------------2---2---2---2---2---2---2---2--------------------------------|
D|----------2---------------2----------2----------2-2---------2-----------------------------------2----------------------------|
A|------3---------------3----------3----------------------0-------------------------------------------0---3---0----------------|
E|--1---------------0----------0----------------0------------------------------------------------------------------------------|


REFREN (CHORUS)


KONIEC (OUTRO)

e|--------------------------------------------------------------------------------------------------------------------------|
H|--1---0---1---0---1---0---1---0---1----------------------1---0---1---0---1---0---1---0---1--------------0-----------------|
G|----------2---2---2---2---2---2---2---2------------------------------0---2-----------------------------2-------2----------|
D|------2----------------------------------2---3---0---3-----------3---------------------------3--------0-------2-----------|
A|--0----------------------------------------------------------3-----------------------------------3---2-------0------------|
E|---------------------------------------------------------1----------------------------------------------------------------|
Dodał: kolbe11, 2019-12-08 21:07
Opracowania video z komentarzy

Dodaj komentarz ...i/lub link do filmiku video

Zaloguj się do serwisu
Wszelkie materiały i wypowiedzi zamieszczone na www.chords.pl są własnością ich autorów.