Zacznij systematycznie uczyć się grać na gitarze razem ze stroną Moja nauka - będziesz miał/miała do niej dostęp po zalogowaniu się w serwisie

Panny mego dziadka - Zbigniew Wodecki

Opracował -a: waisiknt,
Dodał -a: waisiknt,
Redaktor: SEBEK1304,
Pochodzi z: http://www.chords.pl/
Data publikacji: 2013-08-16 12:27
 
Moja nauka


Ups, problem :-/
Zaloguj się Mój śpiewnik


Główny motyw:

E1|------10-----10-----------|
H2|----8------8--------------|
G3|-10------9----------------|
D4|--------------------------|
A5|--------------------------|
E6|--------------------------|

Intro solówka:

E1|------8b----8----8b----10----|
H2|-8-11----11---11----11----8--|
G3|-----------------------------|
D4|-----------------------------|
A5|-----------------------------|
E6|-----------------------------|

Zwrotka(umownie, prawie cała piosenka tak leci)
Gm7 C7

Mostek:
Gm7 Bbm7
Am7 B(H)m7 x2
Dodał: waisiknt, 2013-08-16 12:28
Opracowania video z komentarzy

Dodaj komentarz ...i/lub link do filmiku video

Zaloguj się do serwisu
Wszelkie materiały i wypowiedzi zamieszczone na www.chords.pl są własnością ich autorów.