Zacznij systematycznie uczyć się grać na gitarze razem ze stroną Moja nauka - będziesz miał/miała do niej dostęp po zalogowaniu się w serwisie

Fall to Pieces - Avril Lavigne

Opracował -a: nataliary,
Dodał -a: pszczoolka,
Data publikacji: 2005-10-03 11:52
 
Moja nauka


Ups, problem :-/
Zaloguj się Mój śpiewnik
Zwrotka:

Am   C   G   F  ( x 2 )

Ref:
C
And I don't...
Am                G
I just want ...  stare at you
F
I don't wanna...
C
And I don't...
Am                              G
I just want...     ...front of you
Dm                                 F
I don't...                     ...I'm in love...


Mostek:
Am    C           G
      Em          F
            Am       G
Am    C           G
      Em          F
            Am     G  Em   F

Zakonczenie:
Cause...   C
           Am
           G
           F



INTRO by nataliary

e|----------------------------------------|
H|----------------------------------------|
G|------2-------0-------0-------------2---|
D|----2---2---2---2---0---0---------3-----|
A|--0-------3-------2-------------3-------|
E|------------------------------1---------|
O
CHORUS
VO
e|-----------------------------------------1------|
H|-------------------------------------------1----|
G|------2-------0-------0-------------2--------2--|
D|----2---2---2---2---0---0---------3-------------|
A|--0-------3-------2-------------3---------------|
E|------------------------------1-----------------|

Dodaj komentarz ...i/lub link do filmiku video

Zaloguj się do serwisu
Wszelkie materiały i wypowiedzi zamieszczone na www.chords.pl są własnością ich autorów.