Zacznij systematycznie uczyć się grać na gitarze razem ze stroną Moja nauka - będziesz miał/miała do niej dostęp po zalogowaniu się w serwisie

Mała dziewczynka - Coma

Dodał -a: Qba,
Redaktor: Tomek Pietrzkowski,
Data publikacji: 2007-05-18 00:02
 
Moja nauka


Ups, problem :-/
Zaloguj się Mój śpiewnik
G|-5-------------2---------5----------------2--------------|
D|-5-------------2---------5----------------2--------------|
A|-3-------------0---------3----------------0--------------|
E|---------------------------------------------------------|


G|-5-----------------------2------------------3--3--2-2----|
D|-5-----------------------2-----5---5-5--5---3--3--2-2----|
A|-3-----------------------0-----5---5-5--5---1--1--0-0----|
E|-------------------------------3---3-3--3----------------|


Refren
G|-----------------------------------------------------|
D|-5-5-5-5----10-10-10-10---5-5-5-5---10-10-10-10------|
A|-3-3-3-3-----8--8--8--8---3-3-3-3----8--8--8--8------|
E|-----------------------------------------------------|

G|--5-5-5-5-------10-10-10-10------12-12-12-12-12-12-12---|
D|--5-5-5-5-------10-10-10-10------12-12-12-12-12-12-12---|
A|--3-3-3-3--------8--8--8--8------10-10-10-10-10-10-10---|
E|--------------------------------------------------------|

Solo
e|--12-----------12-------15-|--12---------------------------------|
B|-----14-12--------14-12----|-----14-12---------------------------|
G|-----------12--------------|-----------12---12-12(13)12-15-13-12-|
D|---------------------------|-------------------------------------|
A|---------------------------|-------------------------------------|
E|---------------------------|-------------------------------------|

e|--12-------15---12----------|--------------------------------|
B|-----14-12---------14-12----|--------------------------------|
G|-------------------------12-|-12-12-12-12-12-12-12-12--------|
D|----------------------------|--------------------------------|
A|----------------------------|-----(różnie-podcišgana)--------|
E|----------------------------|--------------------------------|

e|------------------------------|-----------------------------|
B|------------------------------|-----------------------------|
G|------------------------------|-----------------------------|
D|-5--5h7p5-5-8-7---5-8-7-5--10-|--8--10--8--5---8--7--5------|
A|------------------------------|-----------------------------|
E|------------------------------|-----------------------------|

e|-------------------------------------|--------------------|
B|-------------------------------------|--------------------|
G|-------------------------------------|--------------------|
D|-10h12-8-7--10h12-8-7--10h12--8-7/---|-5---10~~~~~~-------|
A|---------------------------------|---|--------------------|
E|---------------------------------|---|--------------------|
         slide do końca gryfu

End
G|--5-------|
D|--5-------|
A|--3-------|
E|----------|

Dodaj komentarz ...i/lub link do filmiku video

Zaloguj się do serwisu
Ostatnie komentarze
1.
agataaa04
2009-09-27 18:51
Wie może ktoś jak to zagrać na chwytach albo wie gdzie je znależć
Wszelkie materiały i wypowiedzi zamieszczone na www.chords.pl są własnością ich autorów.