Zacznij systematycznie uczyć się grać na gitarze razem ze stroną Moja nauka - będziesz miał/miała do niej dostęp po zalogowaniu się w serwisie

Piraci z Karaibów - Film Themes

Opracował -a: asinek11,
Redaktor: Arthur,
Pochodzi z: http://www.chords.pl
Data publikacji: 2009-05-02 00:01
 
Moja nauka


Ups, problem :-/
Zaloguj się Mój śpiewnik


Film Piraci z Karaibów

E------------------------------------------------------
H---------------5--6-6----6--8--5-5--5-----------------
G---5--7-7----7------------------------7--5--5-H7------
D-7----------------------------------------------------
A------------------------------------------------------
E------------------------------------------------------

E------------------------------------------------------
H---------------5--6-6----6--8--5-5--5-----------------
G---5--7-7----7------------------------7--5--7---------
D-7----------------------------------------------------
A------------------------------------------------------
E------------------------------------------------------

E---------------------------5--6-6---5---5-------------
H---------------6--8-8----8------------8---------------
G---5--7-7----7----------------------------7-----------
D-7----------------------------------------------------
A------------------------------------------------------
E------------------------------------------------------

E-------------5----------------------------------------
H---5--6-6--8------------6--5-5---6---5----------------
G-7--------------7-----7------------7------------------
D-----------------------------------------------------
A------------------------------------------------------
E------------------------------------------------------

E-----------------------5p1-1-----6--------------------
H-----5-5-----4p5-6-6-8-------2-----7------------------
G---5-----7-5-------------------3-----8---7-10---------
D-7-----------------------------------8-7-7-7----------
A------------------------------------------------------
E------------------------------------------------------

E------------------------------------------------------
H-10-10-10-11-10-8-8-8-8h9-10-10-10-11-10--------------
G-10-10-10-10----9-9-9-9---10-10-10-10-----------------
D------------------------------------------------------
A------------------------------------------------------
E------------------------------------------------------

E------------------------------------------------------
H-8-6-5----------8-10-8---------8-10-8----8-10-8-------
G-9-7-0-7-7-9-10--------10-9-10--------10--------10-9-10-9-7-
D-------7-----------------------------------------------
A------------------------------------------------------
E------------------------------------------------------

E------------------------------------------------------
H-------------------8----8-10-8------------------------
G-9-5-7-7-9-10-9-10---10--------10-7-------------------
D------------------------------------------------------
A------------------------------------------------------
E------------------------------------------------------

E------------------------------------------------------
H--------8-10-11---8----8------------------------------
G-7-9-10---------7---10---9-7-9-5----------------------
D------------------------------------------------------
A------------------------------------------------------
E------------------------------------------------------

E------------------------------------------------------
H-10-11-10-10-10-10-8-8-6-5-6-5-3----------------------
G-------------------------------2----------------------
D-7--8--7--7--7--7--5-5-3-2-3-2-0----------------------
A------------------------------------------------------
E------------------------------------------------------

E-------5-------6-------5-5-8-5------------------------
H-----6-------6-------6---------8-8-6-5-6-5-------6----
G---7-------7-------7-------------9-7-5-7-5-7---7---7--
D-7-------7-------7---------------------------7--------
A------------------------------------------------------
E------------------------------------------------------


Wykonawca Adam Wala
Dodał: zz76zz, 2013-12-03 22:26
Opracowania video z komentarzy

Dodaj komentarz ...i/lub link do filmiku video

Zaloguj się do serwisu
Ostatnie komentarze
1.
Tomek_Z
2009-07-01 23:22
taby są złe ... to sie gra inczej
2.
Dj-Camil
2009-05-02 15:07
Jest w miarę OK, ale brakuje Intra: Intro E|--------------|--------------|--------------|---| B|--------------|--------------|--------------|-7-| G|--------------|--------------|--------------|-7-| D|--------------|--------------|--------------|---| A|-5-55-55-5555-|-5-55-55-5555-|-5-55-55-5555-|-5-| E|--------------|--------------|--------------|---|
Wszelkie materiały i wypowiedzi zamieszczone na www.chords.pl są własnością ich autorów.