Zacznij systematycznie uczyć się grać na gitarze razem ze stroną Moja nauka - będziesz miał/miała do niej dostęp po zalogowaniu się w serwisie

Paradise City - Guns N' Roses

Opracował -a: agusia,
Data publikacji: 2005-08-26 00:02
 
Moja nauka


Ups, problem :-/
Zaloguj się Mój śpiewnik


D#||--3----3-----3-------3-------|----------3-----3-------3-------|
A#||--0------0------0------0---0-|--1---------1------1------1---1-|
F#||--0--------0------0------0---|--0-----------0------0------0---|
C#||--0--------------------------|--0h2---2-----------------------|
G#||--2--------------------------|------3-------------------------|
D#||--3--------------------------|--------------------------------|



---------3---------------3-------|-------3-----3---------------------|
--1----1---1---1-1-----1---1---0-|--0------0------0-----0----0-------|
--0h2--------2---0-----------0---|--0--------0------0h2---0--------0-|
--0h3------------0h2-------------|--0--------------------------0h2---|
---------------------3-----------|--2--------------------------------|
---------------------------------|--3--------------------------------|



--3----3-----3-------3-------|----------3-----3-------3-------|
--0------0------0------0---0-|--1---------1------1------1---1-|
--0--------0------0------0---|--0-----------0------0------0---|
--0--------------------------|--0h2---2-----------------------|
--2--------------------------|------3-------------------------|
--3--------------------------|--------------------------------|



---------3---------------3-------|-------3-----3---------------------|
--1----1---1---1-1-----1---1---0-|--0------0------0-----0----0-------|
--0h2--------2---0-----------0---|--0--------0------0h2---0--------0-|
--0h3------------0h2-------------|--0--------------------------0h2---|
---------------------3-----------|--2--------------------------------|
---------------------------------|--3--------------------------------|



--3----3-----3-------3-------|----------3-----3-------3-------|
--0------0------0------0---0-|--1---------1------1------1---1-|
--0--------0------0------0---|--0-----------0------0------0---|
--0--------------------------|--0h2---2-----------------------|
--2--------------------------|------3-------------------------|
--3--------------------------|--------------------------------|



---------3---------------3-------|-------3-----3---------------------|
--1----1---1---1-1-----1---1---0-|--0------0------0-----0----0-------|
--0h2--------2---0-----------0---|--0--------0------0h2---0--------0-|
--0h3------------0h2-------------|--0--------------------------0h2---|
---------------------3-----------|--2--------------------------------|
---------------------------------|--3--------------------------------|



--3----3-----3-------3-------|----------3-----3-------3-------|
--0------0------0------0---0-|--1---------1------1------1---1-|
--0--------0------0------0---|--0-----------0------0------0---|
--0--------------------------|--0h2---2-----------------------|
--2--------------------------|------3-------------------------|
--3--------------------------|--------------------------------|



---------3---------------3-------|-------3-----3---------------------|
--1----1---1---1-1-----1---1---0-|--0------0------0-----0----0-------|
--0h2--------2---0-----------0---|--0--------0------0h2---0--------0-|
--0h3------------0h2-------------|--0--------------------------0h2---|
---------------------3-----------|--2--------------------------------|
---------------------------------|--3--------------------------------|



--3----3-----3-------3-------|----------3-----3-------3-------|
--0------0------0------0---0-|--1---------1------1------1---1-|
--0--------0------0------0---|--0-----------0------0------0---|
--0--------------------------|--0h2---2-----------------------|
--2--------------------------|------3-------------------------|
--3--------------------------|--------------------------------|



---------3---------------3-------|-------3-----3---------------------|
--1----1---1---1-1-----1---1---0-|--0------0------0-----0----0-------|
--0h2--------2---0-----------0---|--0--------0------0h2---0--------0-|
--0h3------------0h2-------------|--0--------------------------0h2---|
---------------------3-----------|--2--------------------------------|
---------------------------------|--3--------------------------------|



--3----3-----3-------3-------|----------3-----3-------3-------|
--0------0------0------0---0-|--1---------1------1------1---1-|
--0--------0------0------0---|--0-----------0------0------0---|
--0--------------------------|--0h2---2-----------------------|
--2--------------------------|------3-------------------------|
--3--------------------------|--------------------------------|



---------3---------------3-------|-------3-----3---------------------|
--1----1---1---1-1-----1---1---0-|--0------0------0-----0----0-------|
--0h2--------2---0-----------0---|--0--------0------0h2---0--------0-|
--0h3------------0h2-------------|--0--------------------------0h2---|
---------------------3-----------|--2--------------------------------|
---------------------------------|--3--------------------------------|
Dodał: LuxVi, 2013-02-14 20:22
Opracowania video z komentarzy

Dodaj komentarz ...i/lub link do filmiku video

Zaloguj się do serwisu
Ostatnie komentarze
1.
IronHand
2013-02-14 16:37
Super opracowanie ;-)
Wszelkie materiały i wypowiedzi zamieszczone na www.chords.pl są własnością ich autorów.