Zacznij systematycznie uczyć się grać na gitarze razem ze stroną Moja nauka - będziesz miał/miała do niej dostęp po zalogowaniu się w serwisie

Stale płynne - Mela Koteluk

Opracował -a: kcnowak,
Dodał -a: kcnowak,
Redaktor: Seba,
Pochodzi z: https://tabs.ultimate-guitar.com/m/mela_koteluk/stale_plynne_ukulele_crd.htm
Data publikacji: 2017-05-06 07:16
 
Moja nauka


Ups, problem :-/
Zaloguj się Mój śpiewnik



Gtr I

|-----2-------5---|-----2-------3---|-----2-------5---|-2----|
|-----3-------2---|-----3-------0---|-----3-------2---|-3----|
|---4---4---2---2-|---2---2---0---0-|---4---4---2---2-|-2----|
|-4-------2-------|-0-------0-------|-4-------2-------|-0----|



|-----2-------5---|-----2-------3---|-----2-------5---|-----2-------3---|
|-----3-------2---|-----3-------0---|-----3-------2---|-----3-------0---|
|---4---4---2---2-|---2---2---0---0-|---4---4---2---2-|---2---2---0---0-|
|-4-------2-------|-0-------0-------|-4-------2-------|-0-------0-------|



|-----2-------5---|-----2-------3---|-----2-------5---|-2----|
|-----3-------2---|-----3-------0---|-----3-------2---|-3----|
|---4---4---2---2-|---2---2---0---0-|---4---4---2---2-|-2----|
|-4-------2-------|-0-------0-------|-4-------2-------|-0----|



|-2-(2)-2---------5-5-5---------|-2--2-2-(2)-2-2---------|
|-3-(3)-3-(x)-(x)-2-2-2-(x)-(x)-|-3--3-3-(3)-3-3-(x)-(x)-|
|-4-(4)-4-(x)-(x)-2-2-2-(x)-(x)-|-2--2-2-(2)-2-2-(x)-(x)-|
|-4-(4)-4---------2-2-2---------|-0--0-0-(0)-0-0---------|



|-2-(2)-2---------5-5-5---------|-2--2-2-(2)-2-2---------|
|-3-(3)-3-(x)-(x)-2-2-2-(x)-(x)-|-3--3-3-(3)-3-3-(x)-(x)-|
|-4-(4)-4-(x)-(x)-2-2-2-(x)-(x)-|-2--2-2-(2)-2-2-(x)-(x)-|
|-4-(4)-4---------2-2-2---------|-0--0-0-(0)-0-0---------|



|-2-(2)-2---------5-5-5---------|-2--2-2-(2)-2-2---------|
|-3-(3)-3-(x)-(x)-2-2-2-(x)-(x)-|-3--3-3-(3)-3-3-(x)-(x)-|
|-4-(4)-4-(x)-(x)-2-2-2-(x)-(x)-|-2--2-2-(2)-2-2-(x)-(x)-|
|-4-(4)-4---------2-2-2---------|-0--0-0-(0)-0-0---------|



|-2-(2)-2---------5-5-5---------|-2----|
|-3-(3)-3-(x)-(x)-2-2-2-(x)-(x)-|-3----|
|-4-(4)-4-(x)-(x)-2-2-2-(x)-(x)-|-2----|
|-4-(4)-4---------2-2-2---------|-0----|



|-2---(2)-2-(2)-(2)-2-(2)-|-3-(3)-(3)-3-(3)-(3)-3-(x)-(x)-|
|-2---(2)-2-(2)-(2)-2-(2)-|-0-(0)-(0)-0-(0)-(0)-0-(x)-(x)-|
|-2---(2)-2-(2)-(2)-2-(2)-|-0-(0)-(0)-0-(0)-(0)-0-(x)-(x)-|
|-5---(5)-5-(5)-(5)-5-(5)-|-0-(0)-(0)-0-(0)-(0)-0-(x)-(x)-|



|-2-(2)-(2)-2-(2)-(2)-2-(x)-(x)-|-2-(2)-(2)-2-(2)-(2)-2-(x)-|
|-3-(3)-(3)-3-(3)-(3)-3-(x)-(x)-|-3-(3)-(3)-3-(3)-(3)-3-(x)-|
|-2-(2)-(2)-2-(2)-(2)-2-(x)-(x)-|-2-(2)-(2)-2-(2)-(2)-2-(x)-|
|-0-(0)-(0)-0-(0)-(0)-0-(x)-(x)-|-0-(0)-(0)-0-(0)-(0)-0-(x)-|



|-2---(2)-2-(2)-(2)-2-(2)-|-3-(3)-(3)-3-(3)-(3)-3-(x)-(x)-|
|-2---(2)-2-(2)-(2)-2-(2)-|-0-(0)-(0)-0-(0)-(0)-0-(x)-(x)-|
|-2---(2)-2-(2)-(2)-2-(2)-|-0-(0)-(0)-0-(0)-(0)-0-(x)-(x)-|
|-5---(5)-5-(5)-(5)-5-(5)-|-0-(0)-(0)-0-(0)-(0)-0-(x)-(x)-|



|-2-(2)-(2)-2-(2)-(2)-2-(x)-(x)-|-2-(2)-(2)-2-(2)-(2)-2-(x)-|
|-3-(3)-(3)-3-(3)-(3)-3-(x)-(x)-|-3-(3)-(3)-3-(3)-(3)-3-(x)-|
|-2-(2)-(2)-2-(2)-(2)-2-(x)-(x)-|-2-(2)-(2)-2-(2)-(2)-2-(x)-|
|-0-(0)-(0)-0-(0)-(0)-0-(x)-(x)-|-0-(0)-(0)-0-(0)-(0)-0-(x)-|



|-2---(2)-2-(2)-(2)-2-(2)-|-3-(3)-(3)-3-(3)-(3)-3-(x)-(x)-|
|-2---(2)-2-(2)-(2)-2-(2)-|-0-(0)-(0)-0-(0)-(0)-0-(x)-(x)-|
|-2---(2)-2-(2)-(2)-2-(2)-|-0-(0)-(0)-0-(0)-(0)-0-(x)-(x)-|
|-5---(5)-5-(5)-(5)-5-(5)-|-0-(0)-(0)-0-(0)-(0)-0-(x)-(x)-|



|-2-(2)-(2)-2-(2)-(2)-2-(x)-(x)-|-2-(2)-(2)-2-(2)-(2)-2-(x)-|
|-3-(3)-(3)-3-(3)-(3)-3-(x)-(x)-|-3-(3)-(3)-3-(3)-(3)-3-(x)-|
|-2-(2)-(2)-2-(2)-(2)-2-(x)-(x)-|-2-(2)-(2)-2-(2)-(2)-2-(x)-|
|-0-(0)-(0)-0-(0)-(0)-0-(x)-(x)-|-0-(0)-(0)-0-(0)-(0)-0-(x)-|



|-2--2-2--2-2--|-3--(3)-3-3--3--|-2-----(2)-2-2--|-|
|-2--2-2--2-2--|-0--(0)-0-0--0--|-3-----(3)-3-3--|-|
|-2--2-2--2-2--|-0--(0)-0-0--0--|-2-----(2)-2-2--|-|
|-5--5-5--5-5--|-0--(0)-0-0--0--|-0-----(0)-0-0--|-|

Dodaj komentarz ...i/lub link do filmiku video

Zaloguj się do serwisu
Wszelkie materiały i wypowiedzi zamieszczone na www.chords.pl są własnością ich autorów.