Zacznij systematycznie uczyć się grać na gitarze razem ze stroną Moja nauka - będziesz miał/miała do niej dostęp po zalogowaniu się w serwisie

Fastrygi - Mela Koteluk

Opracował -a: kcnowak,
Dodał -a: kcnowak,
Redaktor: Seba,
Pochodzi z: http://www.chords.pl/
Data publikacji: 2017-05-06 07:16
 
Moja nauka


Ups, problem :-/
Zaloguj się Mój śpiewnik


Główny motyw gitarowy

Gtr I (E A D G B E)


||--------0-----------0-----|--------0-----------0-----|-|
||------5---5-------5---5---|------7---7-------7---7---|-|
||----5-------5---5-------5-|----7-------7---7-------7-|-|
||--5-----------5-----------|-/7-----------7-----------|-|
||--------------------------|--------------------------|-|
||--------------------------|--------------------------|-|



|-------0-----------0-----|-------0-----------0-------||-|
|-----8---8-------8---8---|-----8---8-------8---8-----||-|
|---9-------9---9-------9-|---9-------9---9-------9\--||-|
|-9-----------9-----------|-9-----------9-------------||-|
|-------------------------|---------------------------||-|
|-------------------------|---------------------------||-|

Dodaj komentarz ...i/lub link do filmiku video

Zaloguj się do serwisu
Wszelkie materiały i wypowiedzi zamieszczone na www.chords.pl są własnością ich autorów.