Zacznij systematycznie uczyć się grać na gitarze razem ze stroną Moja nauka - będziesz miał/miała do niej dostęp po zalogowaniu się w serwisie

Wataha - Męskie Granie Orkiestra

Opracował -a: martinwhite,
Dodał -a: martinwhite,
Redaktor: Tomek Pietrzkowski,
Pochodzi z: http://www.chords.pl/
Data publikacji: 2016-08-01 08:49
 
Moja nauka


Ups, problem :-/
Zaloguj się Mój śpiewnik
Intro:
E|----------------------------------------------------------------------------------
A|----------------------------------------------------------------------------------
D|----------------------------------------------------------------------------------
G|-2---------------------------------------------------------------------2--2-----2-
H|---1--2--3--3--1--3--1--3-------------------------3--3--1--3-----3--1--------1----
E|---------------------------1--3--3--1--3/4--3--1--------------1-------------------

E|----------------------------------------------------------------------------------
A|----------------------------------------------------------------------------------
D|----------------------------------------------------------------------------------
G|-2---------------------------------------------------------------------2--2-----2-
H|---1--2--3--3--1--3--1--3-------------------------3--3--1--3-----3--1--------1----
E|---------------------------1--3--3--1--3/4--3--1--------------1-------------------

Ooooo...

Gitara 1:
E|----------------------------------------------------------------------------------
A|----------------------------------------------------------------------------------
D|----------------------------------------------------------------------------------
G|-2---------------------------------------------------------------------2--2-----2-
H|---1--2--3--3--1--3--1--3-------------------------3--3--1--3-----3--1--------1----
E|---------------------------1--3--3--1--3/4--3--1--------------1-------------------

Gitara 2:
E|-------------------------------3-3-3-3-3-3-3--1-1-1-2-
A|-5-5-5-5-5-5-5--3-3-3-3-3-3-3--5-5-5-5-5-5-5--3-3-3-4-
D|-7-7-7-7-7-7-7--5-5-5-5-5-5-5--5-5-5-5-5-5-5--3-3-3-4-
G|-7-7-7-7-7-7-7--5-5-5-5-5-5-5-------------------------
H|------------------------------------------------------
E|------------------------------------------------------

Zwrotka:
E|---------------------------------------
A|-3-3--4-4--5-5-4-5---3-3--4-4--5-5-4-5-
D|-5-5--6-6--7-7-6-7---5-5--6-6--7-7-5-7-
G|---------------------------------------
H|---------------------------------------
E|---------------------------------------

I mocniej...

Gitara 1:
E|---------------------------------------------------------------------------
A|---------------------------------------------------------------------------
D|---------------------------------------------------------------------------
G|----------------------------------------------------------------2--2-----2-
H|--3--3--1--3--1--3-------------------------3--3--1--3-----3--1--------1----
E|--------------------1--3--3--1--3/4--3--1--------------1-------------------

E|----------------------------------------------------------------------------------
A|----------------------------------------------------------------------------------
D|----------------------------------------------------------------------------------
G|-2---------------------------------------------------------------------2--2-----2-
H|---1--2--3--3--1--3--1--3-------------------------3--3--1--3-----3--1--------1----
E|---------------------------1--3--3--1--3/4--3--1--------------1-------------------

Gitara 2:
E|-----------------3-3-3-3-3-----------------5-5-5-5-
A|-5-5-5-5-5-5-5-5-5-5-5-5-5-5-5-5-5-5-5-5-5-7-7-7-7-
D|-7-7-7-7-7-7-7-7-5-5-5-5-5-7-7-7-7-7-7-7-7-7-7-7-7-
G|-7-7-7-7-7-7-7-7-----------7-7-7-7-7-7-7-7---------
H|---------------------------------------------------
E|---------------------------------------------------

Przed ostatnią zwrotką:

E|----------------------------------------------------------------------------------
A|----------------------------------------------------------------------------------
D|----------------------------------------------------------------------------------
G|-2---------------------------------------------------------------------2--2-----2-
H|---1--2--3--3--1--3--1--3-------------------------3--3--1--3-----3--1--------1----
E|---------------------------1--3--3--1--3/4--3--1--------------1-------------------

E|----------------------------------------------------------------------------------
A|----------------------------------------------------------------------------------
D|----------------------------------------------------------------------------------
G|-2---------------------------------------------------------------------2--2-----2-
H|---1--2--3--3--1--3--1--3-------------------------3--3--1--3-----3--1--------1----
E|---------------------------1--3--3--1--3/4--3--1--------------1-------------------

Zwierzęcy instynkt...

[BAS]

E|---------3-3-3-3---------5-5-5-5-
A|-5-5-5-5---------5-5-5-5---------
D|---------------------------------
G|---------------------------------

Miłego grania! :-)
Dodał: martinwhite, 2016-08-01 08:51
Opracowania video z komentarzy

Dodaj komentarz ...i/lub link do filmiku video

Zaloguj się do serwisu
Wszelkie materiały i wypowiedzi zamieszczone na www.chords.pl są własnością ich autorów.