Zacznij systematycznie uczyć się grać na gitarze razem ze stroną Moja nauka - będziesz miał/miała do niej dostęp po zalogowaniu się w serwisie

Wataha - Męskie Granie Orkiestra

Opracował -a: matej20,
Dodał -a: matej20,
Redaktor: Tomek Pietrzkowski,
Pochodzi z: http://www.chords.pl/
Data publikacji: 2016-08-01 08:51
 
Moja nauka


Ups, problem :-/
Zaloguj się Mój śpiewnik
Intro
1 Gitara
e|-------|--------------|---------------|---------------|--------------|
H|-------|-------------6|-8-8-6-8b10-8-6|---------6-----|--------------|
G|----5-6|-7-7-5-7-5-7--|-0-0-0-0----0-0|-7-7-5-7---7-5-|-----5p6------|
D|--7----|-0-0-0-0-0-0--|---------------|-0-0-0-0---0-0-|-7-7-----7----| x2
A|-------|--------------|---------------|---------------|--------------|
E|-------|--------------|---------------|---------------|--------------|

2 Gitara
e|---   |---   |---   |-------   |
H|---   |---   |---   |-------   |
G|-7-   |-5-   |---   |-------   |
D|-7- x8|-5- x8|-5- x8|-3-x4-7-x4|    x2
A|-5-   |-3-   |-5-   |-3----7   |
E|---   |---   |-3-   |-1----5   |

zwr.1 i 2
Riff
e|-----------|---------|-----------|-------------|
H|-----------|---------|-----------|-------------|
G|-5-5---6-6-|-7-7-5s7-|-5-5---6-6-|-----7-7-5s7-|
D|-5-5---6-6-|-7-7-5s7-|-5-5---6-6-|-----7-7-5s7-|
A|-3-3---4-4-|-5-5-3s5-|-3-3---4-4-|-----5-5-3s5-|
E|-----------|---------|-----------|-------------|

Refren
e|---     |---     |---     |---
H|---     |---     |---     |---
G|-7-     |---     |-7-     |---
D|-7- x8  |-5- x8  |-7- x8  |-7- x8            W tle leci motyw z intro
A|-5-     |-5-     |-5-     |-7-
E|---     |-3-     |---     |-5-

Dodaj komentarz ...i/lub link do filmiku video

Zaloguj się do serwisu
Wszelkie materiały i wypowiedzi zamieszczone na www.chords.pl są własnością ich autorów.