Zacznij systematycznie uczyć się grać na gitarze razem ze stroną Moja nauka - będziesz miał/miała do niej dostęp po zalogowaniu się w serwisie

Elektryczny - Męskie Granie Orkiestra

Opracował -a: Adam,
Dodał -a: Adam,
Redaktor: Seba,
Pochodzi z: http://www.chords.pl/
Data publikacji: 2018-07-24 09:30
 
Moja nauka


Ups, problem :-/
Zaloguj się Mój śpiewnik
INTRO
G|---------------|--------------|---------------|--------------|
D|---------------|--------------|---------------|--------------|
A|---------------|--------------|---------------|--------------|
E|---------------|-------5-5-7-7|---------------|-------7-7-5-5|

ZWROTKA 1

G|----------------|----------------|----------------|----------------|
D|----------------|----------------|----------------|----------------|
A|--------5-5-----|----------------|--------5-5-----|----------------|
E|2-2-5-5-----975-|2-2-5-5-----5575|2-2-5-5-----975-|2-2-5-5-5-5-7-7-|

G|----------------|----------------|----------------|----------------|
D|----------------|----------------|----------------|----------------|
A|--------5-5-----|----------------|--------5-5-----|----------------|
E|2-2-5-5-----975-|2-2-5-5------575|2-2-5-5-----975-|2-2-5-5-5-5-7-7-|

REFREN

G|----------------|----------------|----------------|----------------|--|
D|----------------|----------------|----------------|----------------|--|
A|2-202-205-5-575-|----------------|2-202-205-5-575-|----------------|9/|
E|----------------|2-2-2-2-2-2-2/5-|----------------|2-2-2-2-5-5-7-7-|--|


ZWROTKA 2

G|----------------|----------------|----------------|----------------|
D|----------------|----------------|----------------|----------------|
A|--------5-5-----|----------------|--------5-5-----|----------------|
E|2-2-5-5-----975-|2-2-5-5-----55-7|2-2-5-5-----975-|2-2-5-5-5-5-7-7-|

G|----------------|----------------|----------------|----------------|
D|----------------|----------------|----------------|---44-6---------|
A|--------5-5-----|----------------|--------5-5-----|----------------|
E|2-2-5-5-----975-|2-2---5------975|2-2-5-5-----975-|2-------7-7-5-5-|

REFREN

G|----------------|----------------|----------------|----------------|--|
D|----------------|----------------|----------------|----------------|--|
A|2-2-2-2-5-5-5-5-|----------------|2-2-2-2-5-5-57--|----------------|--|
E|----------------|2-2-2-2-2-2-2---|----------------|2-2-2-2-5-5-7-7-|2~|

PRZEJŚCIE

G|----------------|----------------|----------------|----------------|
D|----------------|----------------|----------------|----------------|
A|----------------|----------------|----------------|----------------|
E|2222222222222222|2222222225-5-7-7|2222222222222222|2222222227-7-5-5|

G|----------------|----------------|
D|----------------|----------------|
A|----------------|----------------|
E|2---------------|--------------7/|

ZWROTKA 3

G|----------------|----------------|----------------|----------------|
D|----------------|----------------|----------------|----------------|
A|----------------|----------------|----------------|----------------|
E|----------------|2-2-5-5---------|2-2-5-5-9-9-975-|2-2-5-5-5-5-7-7-|

G|----------------|----------------|----------------|----------------|
D|----------------|----------------|----------------|----------------|
A|----------------|----------------|----------------|----------------|
E|2-2-5-5-9-9-975-|2-2-5-5-----575-|2-2-5-5-9-9-975-|2-2-5-5-7-7-5-5-|

REFREN

G|----------------|----------------|----------------|----------------|
D|----------------|----------------|----------------|----------------|
A|2-202-205-5-575-|----------------|2-202-205-5-575-|----------------|
E|----------------|2-2-202-2-2-2/5-|----------------|2-2-2-2-5-5-----|

G|----------------|----------------|----------------|----------------|--|
D|----------------|----------------|----------------|----------------|--|
A|2-202-205-5-575-|----------------|2-202-205-5-575-|----------------|--|
E|----------------|2-2-202-2-2-2/5-|----------------|2-2-2-2-5-5-7-7-|2~|
Dodał: Adam, 2018-07-24 09:36
Opracowania video z komentarzy

Dodaj komentarz ...i/lub link do filmiku video

Zaloguj się do serwisu
Wszelkie materiały i wypowiedzi zamieszczone na www.chords.pl są własnością ich autorów.