Zacznij systematycznie uczyć się grać na gitarze razem ze stroną Moja nauka - będziesz miał/miała do niej dostęp po zalogowaniu się w serwisie

Zostaw mnie (tab) - Pull The Wire

Opracował -a: Seba,
Dodał -a: Seba,
Redaktor: Seba,
Data publikacji: 2012-10-16 15:03
 
Moja nauka


Ups, problem :-/
Zaloguj się Mój śpiewnik
Verse:

E1|-------------------------------------------------------------------
H|--------------------------------------------------------------------
G|-------0-------2-------0-------2-------0-------2-------0------------
D|-----2---2---2---2---4---4---0---0---2---2---2---2---4---4---4---4--
A|-----------0---------------2---------------0------------------------
E6|--0---------------3---------------0---------------3-------2---3----

E1|-0--2--0--2--
H|--1--3--1--3--
G|--0--2--0--2--
D|--2--0--2--0--
A|--3-----3-----
E6|-------------

Chorus:

E1|------------------------------
H|-------------------------------
G|-------------------------------
D|--9--9---5-5-5----------7-7-7--
A|--7--7---3-3-3---5--5---5-5-5--
E6|----------------3--3----------

Dodaj komentarz ...i/lub link do filmiku video

Zaloguj się do serwisu
Wszelkie materiały i wypowiedzi zamieszczone na www.chords.pl są własnością ich autorów.