Zacznij systematycznie uczyć się grać na gitarze razem ze stroną Moja nauka - będziesz miał/miała do niej dostęp po zalogowaniu się w serwisie

Papieros (tab) - Pull The Wire

Opracował -a: Seba,
Dodał -a: Seba,
Redaktor: Seba,
Data publikacji: 2013-06-10 13:49
 
Moja nauka


Ups, problem :-/
Zaloguj się Mój śpiewnik
Intro:

a, e, F, G

E1|----------------------------------------------------
H|-----------------------------------------------------
G|-----------------------------------------------------
D|--2--------------------5-5-5-5-5-5-5--7-7-7-7-7-7-7--
A|--0--5--3-3-3-3-3-3-3--3-3-3-3-3-3-3--5-5-5-5-5-5-5--
E6|----3--1-1-1-1-1-1-1--------------------------------

E1|----------------------------------------------------
H|-----------------------------------------------------
G|-----------------------------------------------------
D|--2--------------------5-5-5-5-5-5-5-----------------
A|--0--5--3-3-3-3-3-3-3--3-3-3-3-3-3-3--5-5-5-5-5-5-5--
E6|----3--1-1-1-1-1-1-1-----------------3-3-3-3-3-3-3--

Verse:

E1|-----------------------------------------------------------------
H|------------------------------------------------------------------
G|------------------------------------------------------------------
D|--2-2--2--2-2--2------------------5-5--5--5-5--5------------------
A|--0-0--0--0-0--0--3-3--3--3-3--3--3-3--3--3-3--3--5-5--5--5-5--5--
E6|-----------------1-1--1--1-1--1------------------3-3--3--3-3--3--

Pre Chorus:

E1|-------------
H|--------------
G|--2-----------
D|--2--2--3--5--
A|--0--2--3--5--
E6|----0--1--3--

Chorus:

E1|-----------------------------------
H|------------------------------------
G|------------------------------------
D|--2---------------5-5-5-5--7-7-7-7--
A|--0--5--3--3-3-3--3-3-3-3--5-5-5-5--
E6|----3--1--1-1-1--------------------

E1|-----------------------------------
H|------------------------------------
G|------------------------------------
D|--2---------------5-5-5-5-----------
A|--0--5--3--3-3-3--3-3-3-3--5-5-5-5--
E6|----3--1--1-1-1-----------3-3-3-3--

Dodaj komentarz ...i/lub link do filmiku video

Zaloguj się do serwisu
Wszelkie materiały i wypowiedzi zamieszczone na www.chords.pl są własnością ich autorów.