Zacznij systematycznie uczyć się grać na gitarze razem ze stroną Moja nauka - będziesz miał/miała do niej dostęp po zalogowaniu się w serwisie

Wściekły (tab) - Pull The Wire

Opracował -a: Seba,
Dodał -a: Seba,
Redaktor: Seba,
Data publikacji: 2013-06-10 13:15
 
Moja nauka


Ups, problem :-/
Zaloguj się Mój śpiewnik
Intro:

E1|------------------------------------
H|-------------------------------------
G|-------------------------------------
D|--------2~--------2-2----------4--4--
A|--2h3h4-----2-3-4------4-4-2~--2--1--
E6|----------------------2-2-----------

E1|--------------------------------------
H|---------------------------------------
G|---------------------------------------
D|--------2~--------2-4-2----------4--4--
A|--2h3h4-----2-3-4--------4-4-2~--2--1--
E6|------------------------2-2-----------

E1|-----------------------------------------------------
H|------------------------------------------------------
G|---------------4--4-4-4-------------------------------
D|--4/6-6-6-6-6--2--2-2-2--6-6--------------------------
A|--2/4-4-4-4-4------------4-4--2-2-------4-4--6-6-6-6--
E6|-----------------------------0-0-2b-0--2-2--4-4-4-4--

E1|----------------------------------------------------------
H|-----------------------------------------------------------
G|---------------4-4-----------------------------------------
D|--4/6-6-6-6-6--2-2--6--4--6--------------------------------
A|--2/4-4-4-4-4-------4--2--4--2--2--2-2-2-2--4--4--4-4-4-4--
E6|----------------------------0--0--0-0-0-0--2--2--2-2-2-2--

Verse:

E1|--------------------------------------------------------------------
H|---------------------------------------------------------------------
G|---------------------------------------------------------------------
D|--4------4------4----------------------------------------------------
A|--2--2-2-2--2-2-2--6------6------6--2------2------2--6------6------6-
E6|------------------4--4-4-4--4-4-4--0--0-0-0--0-0-0--4--4-4-4--4-4-4-

Chorus:

E1|---------------------------------------------------------
H|----------------------------------------------------------
G|----------------------------------------------------------
D|--6-6-6-6...-2-2-2-2...-4-4-4-4...------------------------
A|--4-4-4-4...-0-0-0-0...-2-2-2-2...-4-4--4-4--4-4-4-4-4-4--
E6|----------------------------------2-2--2-2--2-2-2-2-2-2--

Dodaj komentarz ...i/lub link do filmiku video

Zaloguj się do serwisu
Wszelkie materiały i wypowiedzi zamieszczone na www.chords.pl są własnością ich autorów.