Zacznij systematycznie uczyć się grać na gitarze razem ze stroną Moja nauka - będziesz miał/miała do niej dostęp po zalogowaniu się w serwisie

Byłem taki sam - The Analogs

Dodał -a: azpunk,
Redaktor: Seba,
Data publikacji: 2016-02-08 13:58
 
Moja nauka


Ups, problem :-/
Zaloguj się Mój śpiewnik
Zwrotka
--------------|
--------------|
-7--7--7------|
-7--7--7--9-7-|
-5--5--5--9-7-|
----------7-5-|
Refren
----------------------------|
----------------------------|
-----7-7----------------7-7-|
-5-7-7-7----5-7-5-7-5-7-7-7-|
-5-7-5-5----5-7-5-7-5-7-5-5-|
-3-5-----x2-3-5-3-5-3-5-----|

Dodaj komentarz ...i/lub link do filmiku video

Zaloguj się do serwisu
Wszelkie materiały i wypowiedzi zamieszczone na www.chords.pl są własnością ich autorów.