Zacznij systematycznie uczyć się grać na gitarze razem ze stroną Moja nauka - będziesz miał/miała do niej dostęp po zalogowaniu się w serwisie

Powódź dekady - Happysad

Opracował -a: petlica,
Dodał -a: petlica,
Redaktor: petlica,
Pochodzi z: http://www.chords.pl/
Data publikacji: 2015-04-24 06:14
 
Moja nauka


Ups, problem :-/
Zaloguj się Mój śpiewnik
Rozpisałem tylko akordy. Ilość uderzeń to już raczej na wyczucie.

Intro / Verse
|-2--------------7----------------|
|-2--------------7----------------|
|-2--------------7----------------|
|-4--------------9----------------|
|-5--------------10---------------|
|-2--------------7----------------|

Pre Ref
|---------------------------------|
|-8--------------7---7---7---7----|
|-0----6----4----0---0---0---0----|
|-x----0----0----x---x---x---x----|
|-7----x----x----5---5---5---5----|
|------5----3---------------------|


Ref
|---------------------------------|
|-8--8-8-8-10----7-----/----------|
|-7--7-7-7--7----7----/-----------|
|-9--9-9-9--9----7---/------------|
|-7--7-7-7--7----5--/-------------|
|---------------------------------|


pozdr

Dodaj komentarz ...i/lub link do filmiku video

Zaloguj się do serwisu
Wszelkie materiały i wypowiedzi zamieszczone na www.chords.pl są własnością ich autorów.