Zacznij systematycznie uczyć się grać na gitarze razem ze stroną Moja nauka - będziesz miał/miała do niej dostęp po zalogowaniu się w serwisie

Wyznanie (tab) - Kasia Kowalska

Opracował -a: petlica,
Dodał -a: petlica,
Redaktor: petlica,
Pochodzi z: http://www.chords.pl/
Data publikacji: 2015-02-17 05:30
 
Moja nauka


Ups, problem :-/
Zaloguj się Mój śpiewnik
ntro
|-------------------------|---------------------------|-----5----------5--------|-------------------|
|---------6-6p5-------5h6-|---------6-6p5--------5----|-------5----------5------|-------------------|
|---------------5---------|---------------5--------5--|---------5--5-------5----|-------------------|
|-----7-----------5-------|-----7-----------5---------|------------5------------|-7-----------------|
|-5-----------------------|-5-------------------------|------------7------------|-5-----------------|
|-------------------------|---------------------------|-6----------8------------|-------------------|


|-------------------------|-------------------5-------|-----5----------5--------|-------------------|
|---------6-6p5-------5h6-|---------6-6p5-------5-----|-------5----------5------|-------------------|
|---------------5---------|---------------5-------5---|---------5--5-------5----|-------------------|
|-----7-----------5-------|-----7-----------5-------5-|------------5------------|-7-----------------|
|-5-----------------------|-5-------------------------|------------7------------|-5-----------3---3-|
|-------------------------|---------------------------|-6----------8------------|----------/5---5---|


|-------------------|-------------------|
|-------------------|-------------------|
|-------------------|-------------------|
|-7-----------------|-------------------|
|-5-----------------|-------------------|
|-------------------|-------------------|


Verse 1
|-------------------------|---------------------------|-----5----------5--------|-------------------|
|---------6-6p5-------5h6-|---------6-6p5--------5----|-------5----------5------|-------------------|
|---------------5---------|---------------5--------5--|---------5--5-------5----|-------------------|
|-----7-----------5-------|-----7-----------5---------|------------5------------|-7-----------------|
|-5-----------------------|-5-------------------------|------------7------------|-5-----------3---3-|
|-------------------------|---------------------------|-6----------8------------|----------/5---5---|


|-------------------------|-------------------5-------|-----5----------5--------|-------------------|
|---------6-6p5-------5h6-|---------6-6p5-------5-----|-------5----------5------|-------------------|
|---------------5---------|---------------5-------5---|---------5--5-------5----|-------------------|
|-----7-----------5-------|-----7-----------5-------5-|------------5------------|-7-----------------|
|-5-----------------------|-5-------------------------|------------7------------|-5-----------3---3-|
|-------------------------|---------------------------|-6----------8------------|----------/5---5---|


|-------------------|------------10-10--|
|-------------------|------------10-10--|
|-------------------|------------10-10--|
|-7-----------------|-------------------|
|-5-----------------|-------------------|
|-------------------|-------------------|


Ref
|-------------------|-------------------|-------------------|-------------------|
|-------------------|-------------------|-------------------|-------------------|
|-------------------|-------------------|-------------------|-------------------|
|-------------------|-7-------------7-7-|-------------------|-7-----------------|
|-3------5----------|-5-------------5-5-|-3------5----------|-5-----------------|
|-1------3----------|-------------------|-1------3----------|-------------------|



Verse2

Ref                                                                            x3
|-------------------|-0-----------------||-------------------|-0-----------------||
|-------------------|-3-------5-6-5-----||-------------------|-3-----------------||
|-------------------|-2-------------5---||-------------------|-2-----------------||
|-3------5----------|-0---------------5-||-3------5----------|-0-----------------||
|-3------5----------|-0-----------------||-3------5----------|-0-----------------||
|-1------3----------|-------------------||-1------3----------|-------------------||



Interlude                                                         x4
|---------0---------------0-------|---------0---------------0-------|
|-------3---3---------------3-----|-------5---5---------------5-----|
|-----3-------3---------3-----3---|-----5-------5---------5-----5---|
|---3-----------3-----3---------3-|---5-----------5-----5---------5-|
|-1-----------------1-------------|-3-----------------3-------------|
|---------------------------------|---------------------------------|


 Solo Background
|------------------|------------------|-------------------|------------------|
|----6-------------|----6-------------|----3--------5-----|----6-------------|
|----5-------------|----5-------------|-3--3--------5-----|----5-------------|
|----7-------------|----7-------------|-3--3--------5-----|----7-------------|
|-5--5-------3---3-|-5--5-------3---3-|-1--1-----3--3-----|-5--5-------3---3-|
|---------/5---5---|---------/5---5---|-------------------|---------/5---5---|


|------------------|------------------|-------------------|------------------|
|----6-------------|----6-------------|----3--------5-----|----6-------------|
|----5-------------|----5-------------|-3--3--------5-----|----5-------------|
|----7-------------|----7-------------|-3--3--------5-----|----7-------------|
|-5--5-------3---3-|-5--5-------3---3-|-1--1-----3--3-----|-5--5-------3---3-|
|---------/5---5---|---------/5---5---|-------------------|---------/5---5---|


|------------------|------------------|
|------------------|------------------|
|------------------|------------------|
|------------------|------------------|
|-5~---------------|------------------|
|------------------|------------------|

Outro
|-------------------------|-------------------5-------|-----5-------------------|
|---------6-6p5-------5h6-|---------6-6p5-------5-----|-------5-----------------|
|---------------5---------|---------------5-------5---|---------5--5------------|
|-----7-----------5-------|-----7-----------5-------5-|------------5------------|
|-5-----------------------|-5-------------------------|------------7------------|
|-------------------------|---------------------------|-6----------8------------|


|------------------------------------------------|-10----------------|
|-10----10---------------------------------------|-10----------------|
|-10h12-10---10----10----------------------------|-10----------------|
|------------10h12-10---10----10-----------------|-10----------------|
|-----------------------10h12-10-----------------|-12----------------|
|--------------------------------/13-12~---------|-10----------------|

pozdr
petlica
Dodał: magdalena123, 2015-02-20 00:36
Opracowania video z komentarzy

Dodaj komentarz ...i/lub link do filmiku video

Zaloguj się do serwisu
Wszelkie materiały i wypowiedzi zamieszczone na www.chords.pl są własnością ich autorów.