Zacznij systematycznie uczyć się grać na gitarze razem ze stroną Moja nauka - będziesz miał/miała do niej dostęp po zalogowaniu się w serwisie

Peggy Brown - Myslovitz

Opracowali: denu, teddy,
Pochodzi z: http://www.chords.pl
Data publikacji: 2004-09-19 23:54
 
Moja nauka


Ups, problem :-/
Zaloguj się Mój śpiewnik
        e               D
O Peggy Brown....
        G               C
Kto ciebie...


E|----------------------------------------------------
H|-----8--8-7--7--------------------------------------
G|---------------9--9-7--7-9-7---7-9------------------
D|-----------------------------9-----10---------------
A|----------------------------------------------------
E|----------------------------------------------------

E|----------------------------------------------------
H|-----8--8-7--7--------------------------------------
G|---------------9--9-7--7-9-7---7-9---9----7-9----7--
D|-----------------------------9----------9------9----
A|----------------------------------------------------
E|----------------------------------------------------

E|-----12-----12-14-----14-15-----12------------------
H|---------12-------12--------12------13--13-15-13----
G|----------------------------------------------------
D|----------------------------------------------------
A|----------------------------------------------------
E|---------------------------------------------------- x2

E|---------------------------------------------------- (tylko raz)
H|-12--12-13-15-13-12--12-13-15-13-12--12-13-15-13---- -13-15-13--
G|-------------------------------------------------12- -----------
D|---------------------------------------------------- -----------
A|----------------------------------------------------    --------
E|---------------------------------------------------- x2 --------
Dodał: wojtek_n, 2015-07-06 21:48
Opracowania video z komentarzy

Dodaj komentarz ...i/lub link do filmiku video

Zaloguj się do serwisu
Ostatnie komentarze
1.
misia123
2010-08-08 16:13
A w tej solówce czasem drobnych błędów nie ma? Bo coś mi się nie zgadzało i jak dodałam w niektórych miejscach nowe dźwięki to brzmi poprawniej.
2.
Aunga
2009-06-19 18:23
Ja również poproszę na maila ;D xaungax@gmail.com dziękuję ;)
3.
Gajki91
2009-05-15 16:22
Ja też bym prosił o bicie na gajki91@o2.pl z góry dzięki... nie moge rozkminić a do tego mi sie gitara tragicznie rozstroiła a jestem zbyt leniwy zeby stroić ;P
4.
casi12
2008-02-14 17:01
ja gram w innej tonacji :) a G C F
5.
Joey
2007-06-03 14:58
jak dojdziecie do C jest tak C C C Cadd9 C e --0-0-0-0-0-0 --1-1-1-3-1-0 --0-0-0-0-0-0 --2-2-2-2-2-2 --3-3-3-3-3-2 --3-3-3-0-0-0 jak dla mnie ;]
6.
martuska916
2007-02-09 13:02
ref: e D GC zwrotka: eD GC dalej tak samo się powtarza ;)
7.
lucjaN
2006-11-15 17:08
udajcie sie do lazienki, umyjcie dokladnie uszy, wysuszyc... udac sie na kompa wlaczyc utwor... wsłuchacv sie i grac. tyle :D podziekował za uwage :D
8.
Glonojad
2006-10-22 20:20
posłałem użytkownikowi niżej
9.
voytec90
2006-10-22 12:12
ja tez prosze o jakies mp3 w waszym wykonaniu... voytec@poczta.onet.eu
10.
Glonojad
2006-09-04 18:28
A jakieś namiary , czy cuś ...
Wszelkie materiały i wypowiedzi zamieszczone na www.chords.pl są własnością ich autorów.