Zacznij systematycznie uczyć się grać na gitarze razem ze stroną Moja nauka - będziesz miał/miała do niej dostęp po zalogowaniu się w serwisie

Bądź Duży - Natalia Nykiel

Opracował -a: Lodzermensch,
Dodał -a: Lodzermensch,
Redaktor: Tomek Pietrzkowski,
Pochodzi z: http://www.chords.pl/
Data publikacji: 2020-03-16 23:47
 
Moja nauka


Ups, problem :-/
Zaloguj się Mój śpiewnik
Zwrotka:

c-moll

e|--3--------------|
H|---4-------------|
G|----5------------|
D|----5------------|
A|--3--------------|
E|--3--------------|

f-moll

e|1----------------|
H|1----------------|
G|1----------------|
D|--3--------------|
A|--3--------------|
E|1----------------|

Gis-dur

e|---4-------------|
H|---4-------------|
G|----5------------|
D|-----6-----------|
A|-----6-----------|
E|---4-------------|

Refren:

c-moll

e|--3--------------|
H|---4-------------|
G|----5------------|
D|----5------------|
A|--3--------------|
E|--3--------------|

f-moll

e|1----------------|
H|1----------------|
G|1----------------|
D|--3--------------|
A|--3--------------|
E|1----------------|

Dis-dur

e|-----6-----------|
H|-------8---------|
G|-------8---------|
D|-------8---------|
A|-----6-----------|
E|-----6-----------|

B-dur

e|-----6-----------|
H|-----6-----------|
G|------7----------|
D|-------8---------|
A|-------8---------|
E|-----6-----------|
Dodał: Lodzermensch, 2020-03-16 23:48
Opracowania video z komentarzy

Dodaj komentarz ...i/lub link do filmiku video

Zaloguj się do serwisu
Wszelkie materiały i wypowiedzi zamieszczone na www.chords.pl są własnością ich autorów.