Zacznij systematycznie uczyć się grać na gitarze razem ze stroną Moja nauka - będziesz miał/miała do niej dostęp po zalogowaniu się w serwisie

Czarne i białe - Red Lips

Opracowali: petlica, Seba,
Dodali: petlica, Seba,
Redaktor: Seba,
Data publikacji: 2013-07-13 22:16
 
Moja nauka


Ups, problem :-/
Zaloguj się Mój śpiewnik
Intro:

a, C

E1|-----------------------------|--------------------------------- 
H|------------------------------|--------------------------------- 
G|----------5~--------7-5~------|-----------9~---------10-9~------ 
D|------7-7----7------------7/--|-----10-10----10------------10/-- 
A|------------------------------|--------------------------------- 
E6|-5-5-----------5-5-----------|-8-8--------------8-8------------

Verse, Chorus:

a, C, G, a

E1|-----------------------------|--------------------------------- 
H|------------------------------|--------------------------------- 
G|----------5~--------7-5~------|-----------9~---------10-9~------ 
D|------7-7----7------------7/--|-----10-10----10------------10/-- 
A|------------------------------|--------------------------------- 
E6|-5-5-----------5-5-----------|-8-8--------------8-8------------

E1|-----------------------------|------------------------------- 
H|------------------------------|------------------------------- 
G|----------4~--------5-4~------|---------5----5------7-5~~-----
D|------5-5----5-----------5/---|-----7-7-------------------7/-- 
A|------------------------------|----------------7-7------------ 
E6|-3-3-----------3-3-----------|-5-5---------------------------

Dodaj komentarz ...i/lub link do filmiku video

Zaloguj się do serwisu
Ostatnie komentarze
1.
petlica
2013-11-13 08:35
Lekko bym zmienił Intro |-----------------------------|---------------------------------| |-----------------------------|---------------------------------| |---------5~--------7-5~~-----|-----------9~---------10-9~------| |-----7-7----7------------7/--|-----10-10----10------------10/--| |-----------------------------|---------------------------------| |-5-5-----------5-5-----------|-8-8--------------8-8------------| a C G a Ref |-----------------------------|---------------------------------| |-----------------------------|---------------------------------| |---------5~--------7-5~------|-----------9~---------10-9~------| |-----7-7----7------------7/--|-----10-10----10------------10/--| |-----------------------------|---------------------------------| |-5-5-----------5-5-----------|-8-8--------------8-8------------| |-----------------------------|------------------------------| |-----------------------------|------------------------------| |---------4~--------5-4~------|---------5----5------7-5~~----| |-----5-5----5-----------5/---|-----7-7-------------------7/-| |-----------------------------|----------------7-7-----------| |-3-3-----------3-3-----------|-5-5--------------------------|
2.
scooter
2013-11-05 21:26
Intro powinno być tak:P E1|---------------------------------------------------------------------------- H|----------------------------------------------------------------------------- G|---------------------------7----------------------9---------------10--9------ D|---7--7--7--10--7----7--7-----10--7---10--10--10-----10---10--10---------10-- A|----------------------------------------------------------------------------- E6|----------------------------------------------------------------------------
3.
krystiano6
2013-11-03 13:52
Tak powinno byc intro: G3----------------------7-----------------9----------10-9---------- D4---7-7-7-7--10-7--7-7--10-7---7-7-7-10---10--10-10--------10-----
Wszelkie materiały i wypowiedzi zamieszczone na www.chords.pl są własnością ich autorów.