Zacznij systematycznie uczyć się grać na gitarze razem ze stroną Moja nauka - będziesz miał/miała do niej dostęp po zalogowaniu się w serwisie

Neoromantyzm (tab) - Romantycy Lekkich Obyczajów

Opracował -a: noiseordie,
Dodał -a: noiseordie,
Redaktor: Tomek Pietrzkowski,
Pochodzi z: http://www.chords.pl/
Data publikacji: 2020-03-23 18:45
 
Moja nauka


Ups, problem :-/
Zaloguj się Mój śpiewnik
ZWROTKI (najlepiej grać palcowaniem, używając kciuka oraz 1 i 2 palca)

E---------------------------------
B-----8-------3-------8-------1---
G---0---0---0---0---0---0---0---0-
D---------------------------------
A-7-------2-------7-------3-------
E---------------------------------

E---------------------------------
B-----3-------3-------3-------3---
G---0---0---0---0---0---0---0---0-
D---------------------------------
A-----------------2-------2-------
E-3-------3-----------------------

w ostatnim obrocie zwrotki, przed refrenem końcówkę ostatnie 2 takty urywamy
i gramy w taki sposób:

E---------------------------------
B-----8-------3-------8-------1---
G---0---0---0---0---0---0---0---0-
D---------------------------------
A-7-------2-------7-------3-------
E---------------------------------

E---------------------------------
B-----3-------3-------3-----------
G---0---0---0---0---0---0---------
D---------------------------------
A-----------------2---------------
E-3-------3-----------------------

REFREN:
e, h, e, C - po 2 takty na każdy akord, skupiając się na strunach basowych
G, h - po 4 takty na każdy akord, podkreślając struny wiolinowe.
Dodał: noiseordie, 2020-03-23 18:45
Opracowania video z komentarzy

Dodaj komentarz ...i/lub link do filmiku video

Zaloguj się do serwisu
Wszelkie materiały i wypowiedzi zamieszczone na www.chords.pl są własnością ich autorów.