Zacznij systematycznie uczyć się grać na gitarze razem ze stroną Moja nauka - będziesz miał/miała do niej dostęp po zalogowaniu się w serwisie

Troops of doom - Sepultura

Opracował -a: Riffx,
Redaktor: Riffx,
Data publikacji: 2007-07-04 00:02
 
Moja nauka


Ups, problem :-/
Zaloguj się Mój śpiewnik

Riff A:
e:-----------|--------|
b:-----------|--------|
g:-----------|--------|
D:--9--10-12-|--8--9--|
A:--7--8--10-|--6--7--|
E:-----------|--------|


Riff B:
e:-------------------------------------------------|
b:-------------------------------------------------|
g:-------------------------------------------------|
D:---------9-9--------10-10--------8-8---------9-9-|
A:---------7-7---------8-8---------6-6---------7-7-|
E:-0-0-0-0-----0-0-0-0-----0-0-0-0-----0-0-0-0-----|
   x x x x     x x x x     x x x x     x x x x


Riff C:
e:-----------------------------|
b:-----------------------------|
g:-----------------------------|
D:-----------------------------|
A:-----------------------8-8-8-|
E:-0-0-0-0-0-0-0-0-0-0-0-6-6-6-|
   x x x x x x x x x x x


Riff D:
e:-----------------------------------------------------------------|
b:-----------------------------------------------------------------|
g:-----------------------------------------------------------------|
D:-----------------------------------------------------------------|
A:-7-7-7-7-7-7-7-7-----------------6-6-6-6-6-6-6-6-----------------|
E:-----------------7-7-7-7-8-8-8-8-----------------7-7-7-7-8-8-8-8-|
   x x x x x x x x x x x x x x x x x x x x x x x x x x x x x x x x


Riff E:
e:---------------------------------------------------------------------|
b:---------------------------------------------------------------------|
g:---------------------------------------------------------------------|
D:---------------------------------------------------------------------|
A:-------------------------------------1-1-1-1-1-1-1-1-1-1-1-1-1-1-1-1-|
E:-0-0-0-0-0-0-0-0-0-0-0-0-0-0-0-0-2-3---------------------------------|
   x x x x x x x x x x x x x x x x     x x x x x x x x x x x x x x x x


Riff F:
e:---------------------------------------------------------|
b:---------------------------------------------------------|
g:---------------------------------------------------------|
D:---------------------------------------------------------|
A:-14-----14-----15-----13-----14-----14-----15-----17-----|
E:-12-0-0-12-0-0-13-0-0-11-0-0-12-0-0-12-0-0-13-0-0-15-0-0-|
      x x    x x    x x    x x    x x    x x    x x    x x


Riff Z:

e:-------------------------------|
b:-------------------------------|
g:-------------------------------|
D:-------------------------------|
A:-----------------------------1-|
E:-0-0-0-0-0-0-0-0-0-0-0-0-2-3---|
   x x x x x x x x x x x x

Dodaj komentarz ...i/lub link do filmiku video

Zaloguj się do serwisu
Wszelkie materiały i wypowiedzi zamieszczone na www.chords.pl są własnością ich autorów.