Zacznij systematycznie uczyć się grać na gitarze razem ze stroną Moja nauka - będziesz miał/miała do niej dostęp po zalogowaniu się w serwisie

Ghost riders in the sky - The Shadows

Opracował -a: Riffx,
Redaktor: Riffx,
Data publikacji: 2009-06-26 00:01
 
Moja nauka


Ups, problem :-/
Zaloguj się Mój śpiewnik
Ghost Riders In The Sky – The Shadows (autor utworu to Johnny Cash)

INTRO
e----------------------------------------------------------|
B--------------------15----13---12-------------------------|
G---14-----12---14------------------12-14------------------|
D----------------------------------------------------------|
A----------------------------------------------------------|
E----------------------------------------------------------|

e----------------------12-----15---------------------------|
B------------15----13--------------------------------------|
G---12---14------------------------14~~~-------------------|
D----------------------------------------------------------|
A----------------------------------------------------------|
E----------------------------------------------------------|

e----------------------------------------------------------|
B--------------------15----13---12-------------------------|
G---14-----12---14------------------12-12---14-------------|
D----------------------------------------------------------|
A----------------------------------------------------------|
E----------------------------------------------------------|

e---------------------------12-15--------------------------|
B--------------15----13------------------------------------|
G-----12---14-----------------------14~~~------------------|
D----------------------------------------------------------|
A----------------------------------------------------------|
E----------------------------------------------------------|

MAIN RIFF
e----------------------------------------------------------|
B----------------------------------------------------------|
G----------------------------------------------------------|
D----------------------------------------------------------|
A-----0--0-0-0---2--3-3-3-3--0-----------------------------|
E---0--------------------------3—3-3-3--0--2b~~~-----------|

e----------------------------------------------------------|
B----------------------------------------------------------|
G----------------------------------------------------------|
D----------------------------0--2--2-2-2---2~~~------------|
A-----0--0-0-0---2--3--3-3-3-------------3-----------------|
E---0------------------------------------------------------|





e----------------------------------------------------------|
B----------------------------------------------------------|
G-------2-2--22--------------------------------------------|
D--0--2---------22-0-2-2-2-0-------------------------------|
A----------------------------0---------3-3-3--3-3-0-0------|
E------------------------------0-1-1-1----------------3-3/5|

e----------------------------------------------------------|
B----------------------------------------------------------|
G---0-0-0-5---7-7-7-7---0-------------5---5-2b~~~----------|
D---------------------------2-3---3-3----------------------|
A----------------------------------------------------------|
E----------------------------------------------------------|

MAIN RIFF 2
e----------------------------------------------------------|
B----------------------------------------------------------|
G-----2--2-2-2---4--5-5-5-5--2-----------------------------|
D---2--------------------------5-5-5-5-2-4b~~~-------------|
A----------------------------------------------------------|
E----------------------------------------------------------|

e----------------------------------------------------------|
B---------------------------3--5--5-5-5--0-5---------------|
G-----2--2-2-2---4--5-5-5-5--------------------------------|
D---2------------------------------------------------------|
A----------------------------------------------------------|
E----------------------------------------------------------|

e-------5-0-5-0-5-0-5\0------------------------------------|
B---0-5------------------5-5---5-5-5-----------------------|
G----------------------------5-------5--2----------5-------|
D-----------------------------------------2-3-3-3----------|
A----------------------------------------------------------|
E----------------------------------------------------------|

e----------------------------------------------------------|
B----------------------------------------------------------|
G---5-5-2-2-0-1/2~~~---------------------------------------|
D----------------------------------------------------------|
A----------------------------------------------------------|
E----------------------------------------------------------|


e----------------------------------------------------------|
B----------------------------------------------------------|
G---0-0-0-5---7-7-7-7---0-------------5---5-2b~~~----------|
D---------------------------2-3---3-3----------------------|
A----------------------------------------------------------|
E----------------------------------------------------------|


e---3-3-3-8---10-10-10-5---0-1--1-1-8---10-8---5-----------|
B----------------------------------------------------------|
G----------------------------------------------------------|
D----------------------------------------------------------|
A----------------------------------------------------------|
E----------------------------------------------------------|

e----------------------------------------------------------|
B----------------------------------------------------------|
G-------------5~~~-----------------------------------------|
D---2-3---3-3----------------------------------------------|
A----------------------------------------------------------|
E----------------------------------------------------------|

OUTRO
e----------------------------------------------------------|
B--------------------15----13---12-------------------------|
G---14-----12---14------------------12-14------------------|
D----------------------------------------------------------|
A----------------------------------------------------------|
E----------------------------------------------------------|

e------------------------12-----15-------------------------|
B--------------15----13------------------------------------|
G-----12---14------------------------14~~~~~~~~~~~~~~~~~~--|
D----------------------------------------------------------|
A----------------------------------------------------------|
E----------------------------------------------------------|

e--------------------------------------------12-15---------|
B--------------15—13--12---------------15-13---------------|
G---14---12-14-----------12-14---12-14-------------14------|
D----------------------------------------------------------|
A----------------------------------------------------------|
E----------------------------------------------------------|

e--------------------------------------------12-15---------|
B--------------15—13--12---------------15-13---------------|
G---14---12-14-----------12-14---12-14-------------14------|
D----------------------------------------------------------|
A----------------------------------------------------------|
E----------------------------------------------------------|

Dodaj komentarz ...i/lub link do filmiku video

Zaloguj się do serwisu
Wszelkie materiały i wypowiedzi zamieszczone na www.chords.pl są własnością ich autorów.