Zacznij systematycznie uczyć się grać na gitarze razem ze stroną Moja nauka - będziesz miał/miała do niej dostęp po zalogowaniu się w serwisie

Ballada Emanuel (tab) - Wilki

Opracował -a: lukaszwilk,
Dodał -a: lukaszwilk,
Redaktor: Tomek Pietrzkowski,
Pochodzi z: http://www.chords.pl
Data publikacji: 2009-11-22 00:01
 
Moja nauka


Ups, problem :-/
Zaloguj się Mój śpiewnik
Zwrotka i Refren:

G             e2
E|-----------------------|
B|-----0-----------------|
G|----0---0-------0------|
D|---0-----0-----2--2-2--|
A|----------2---2----2---|
E|-3----------0----------|

Przejście pomiędzy zwrotkami:

G             e2                 F
E|-----------------------|     |-----------------|
B|-----0-----------------|     |-----1---------1-|
G|----0---0-------0------|     |----2-2-------2--|
D|---0-----0-----2--2-2--|     |---3----3----3---|
A|----------2---2----2---| x4  |---------3-3-----| x2
E|-3----------0----------|     |-1--------1------|

Na słowach "W twoim życiu..." gramy A H

Dodaj komentarz ...i/lub link do filmiku video

Zaloguj się do serwisu
Wszelkie materiały i wypowiedzi zamieszczone na www.chords.pl są własnością ich autorów.