Zacznij systematycznie uczyć się grać na gitarze razem ze stroną Moja nauka - będziesz miał/miała do niej dostęp po zalogowaniu się w serwisie

Maska - Ewa Farna

Opracował -a: fushigi91,
Dodał -a: fushigi91,
Redaktor: SEBEK1304,
Data publikacji: 2010-08-24 08:25
 
Moja nauka


Ups, problem :-/
Zaloguj się Mój śpiewnik


4|-5-5-|-5-5--|-10-10-10-10-10-10-10-|-10-10-10-10-10-10-10-10-|-10-10-10-10-10-10-10-10-|
5|-5-5-|-5-5--|-10-10-10-10-10-10-10-|-10-10-10-10-10-10-10-10-|-10-10-10-10-10-10-10-10-|
6|-5-5-|-5-5--|-10-10-10-10-10-10-10-|-10-10-10-10-10-10-10-10-|-10-10-10-10-10-10-10-10-|

4|-10-10-10-10-10----------|
5|-10-10-10-10-10----13-13-|
6|-10-10-10-10-10--14------|

4|6-6-6-6-6-6-6-6|6-6-6-6-6-6-6-6|8-8-8-8-8-8-8-8|8-8-8-8-8-8--8--8--|
5|6-6-6-6-6-6-6-6|6-6-6-6-6-6-6-6|8-8-8-8-8-8-8-8|8-8-8-8-8-8--8--8--|
6|6-6-6-6-6-6-6-6|6-6-6-6-6-6-6-6|8-8-8-8-8-8-8-8|8-8-8-8-8-10-10-10-|

4|8-8-8-8--8-8--8-8--|8-8---8-8--8-8--|8-8---8-8--8-8--|8-8---8-8--8-8--|
5|8-8-8-8--8-8--8-8--|8-8---8-8--8-8--|8-8---8-8--8-8--|8-8---8-8--8-8--|
6|8-8-8-10-8-10-8-10-|8-10--8-10-8-10-|8-10--8-10-8-10-|8-10--8-10-8-10-|

4|8-8---8-8--13-13-13-|8-8-8-8-8-8-8-8-|---------------|---------------|----------------|
5|8-8---8-8--13-13-13-|8-8-8-8-8-8-8-8-|7-7-7-7-7-7-7-7|8-8-8-8-8-8-8-8|7-7-7-7-7-7-7-7-|
6|8-10--8-10-13-13-13-|8-8-8-8-8-8-8-8-|---------------|---------------|----------------|

ref


3|3-3-3-3-3-3-3-3-|-5-5-5-5-5-5-5-5-|-7-7-7-7-7-7-7-7|-7-7-7-7-10-10-10-10|
4|3-3-3-3-3-3-3-3-|-5-5-5-5-5-5-5-5-|-7-7-7-7-7-7-7-7|-7-7-7-7-10-10-10-10|
5|1-1-1-1-1-1-1-1-|-3-3-3-3-3-3-3-3-|-5-5-5-5-5-5-5-5|-5-5-5-5-8--8--8--8-|
6|

3|3-3-3-3-3-3-3-3|-5-5-5-5-5-5-5-5|10-10-10-10-10-10-10-10|-9-9-9-9-9-9-9-9|
4|3-3-3-3-3-3-3-3|-5-5-5-5-5-5-5-5|10-10-10-10-10-10-10-10|-9-9-9-9-9-9-9-9|
5|1-1-1-1-1-1-1-1|-3-3-3-3-3-3-3-3|8--8--8--8--8--8--8--8-|-7-7-7-7-7-7-7-7|
6|

3|-3-3-3-3-3-L-L-L|--------|------|
4|-3-3-3-3-3-L-L-L|----5-5-|--5-5-|
5|-1-1-1-1-1-L-L-L|----5-5-|--5-5-|
6|----------------|----5-5-|--5-5-|

DRUGA ZWROTKA


4|10-10-10-10-10-10-10-10|-10-10-10-10-10-10-10-10|-10-10-10-10-10-10-10-10|-10-10-10-10-10-13-13-13|
5|10-10-10-10-10-10-10-10|-10-10-10-10-10-10-10-10|-10-10-10-10-10-10-10-10|-10-10-10-10-10-13-13-13|
6|10-10-10-10-10-10-10-10|-10-10-10-10-10-10-10-10|-10-10-10-10-10-10-10-10|-10-10-10-10-10-13-13-13|

4|6-6-6-6-6-6-6-6|6-6-6-6-6-6-6-6|8-8-8-8-8-8-8-8|8-8-8-8-8-8--8--8--|
5|6-6-6-6-6-6-6-6|6-6-6-6-6-6-6-6|8-8-8-8-8-8-8-8|8-8-8-8-8-8--8--8--|
6|6-6-6-6-6-6-6-6|6-6-6-6-6-6-6-6|8-8-8-8-8-8-8-8|8-8-8-8-8-10-10-10-|

4|8-8-8-8--8-8--8-8--|8-8---8-8--8-8--|8-8---8-8--8-8--|8-8---8-8--8-8--|
5|8-8-8-8--8-8--8-8--|8-8---8-8--8-8--|8-8---8-8--8-8--|8-8---8-8--8-8--|
6|8-8-8-10-8-10-8-10-|8-10--8-10-8-10-|8-10--8-10-8-10-|8-10--8-10-8-10-|


4|8-8---8-8--13-13-13-|3-3-3-3-3-3-3-3-|3-3-3-3-3-3-3-3-|1-1-1-1-1-1-1-1-|5-5-5-5-5-5-5-5|
5|8-8---8-8--13-13-13-|3-3-3-3-3-3-3-3-|3-3-3-3-3-3-3-3-|1-1-1-1-1-1-1-1-|5-5-5-5-5-5-5-5|
6|8-10--8-10-13-13-13-|3-3-3-3-3-3-3-3-|3-3-3-3-3-3-3-3-|1-1-1-1-1-1-1-1-|5-5-5-5-5-5-5-5|


REF


3|3-3-3-3-3-3-3-3-|-5-5-5-5-5-5-5-5-|-7-7-7-7-7-7-7-7|-7-7-7-7-10-10-10-10|
4|3-3-3-3-3-3-3-3-|-5-5-5-5-5-5-5-5-|-7-7-7-7-7-7-7-7|-7-7-7-7-10-10-10-10|
5|1-1-1-1-1-1-1-1-|-3-3-3-3-3-3-3-3-|-5-5-5-5-5-5-5-5|-5-5-5-5-8--8--8--8-|
6|

3|3-3-3-3-3-3-3-3|-5-5-5-5-5-5-5-5|10-10-10-10-10-10-10-10|-9-9-9-9-9-9-9-9|
4|3-3-3-3-3-3-3-3|-5-5-5-5-5-5-5-5|10-10-10-10-10-10-10-10|-9-9-9-9-9-9-9-9|
5|1-1-1-1-1-1-1-1|-3-3-3-3-3-3-3-3|8--8--8--8--8--8--8--8-|-7-7-7-7-7-7-7-7|
6|

3|3-3-3-3-3-3-3-3-|-5-5-5-5-5-5-5-5-|-7-7-7-7-7-7-7-7|-7-7-7-7-10-10-10-10|
4|3-3-3-3-3-3-3-3-|-5-5-5-5-5-5-5-5-|-7-7-7-7-7-7-7-7|-7-7-7-7-10-10-10-10|
5|1-1-1-1-1-1-1-1-|-3-3-3-3-3-3-3-3-|-5-5-5-5-5-5-5-5|-5-5-5-5-8--8--8--8-|
6|

3|3-3-3-3-3-3-3-3|-5-5-5-5-5-5-5-5|10-10-10-10-10-10-10-10|-9-9-9-9-9-9-9-9|
4|3-3-3-3-3-3-3-3|-5-5-5-5-5-5-5-5|10-10-10-10-10-10-10-10|-9-9-9-9-9-9-9-9|
5|1-1-1-1-1-1-1-1|-3-3-3-3-3-3-3-3|8--8--8--8--8--8--8--8-|-7-7-7-7-7-7-7-7|
6|

3|-3-3-3-3-3-L-L-L|
4|-3-3-3-3-3-L-L-L|
5|-1-1-1-1-1-L-L-L|
6|----------------|

BRIDGE:

5|-5-5-5-5-5-5-5-5|-7-7-7-7-7-7-7-7|-8-8-8-8-8-8-8-8|-10-10-10-10-10-10-10-10|


5|-5-5-5-5-5-5-5-5|-7-7-7-7-7-7-7-7|-8-8-8-8-8-8-8-8|-10-10-10-10-10-10-10-10|


4|-6-6-6-6-6-6-6-6|-8-8-8-8-8-8-8-8|-10-10-10-10-10-10-10-10|-10-10-10-10-13-13-13-13|
5|-6-6-6-6-6-6-6-6|-8-8-8-8-8-8-8-8|-10-10-10-10-10-10-10-10|-10-10-10-10-13-13-13-13|
6|-6-6-6-6-6-6-6-6|-8-8-8-8-8-8-8-8|-10-10-10-10-10-10-10-10|-10-10-10-10-13-13-13-13|

REF:


3|3-3-3-3-3-3-3-3-|-5-5-5-5-5-5-5-5-|-7-7-7-7-7-7-7-7|-7-7-7-7-10-10-10-10|
4|3-3-3-3-3-3-3-3-|-5-5-5-5-5-5-5-5-|-7-7-7-7-7-7-7-7|-7-7-7-7-10-10-10-10|
5|1-1-1-1-1-1-1-1-|-3-3-3-3-3-3-3-3-|-5-5-5-5-5-5-5-5|-5-5-5-5-8--8--8--8-|
6|

3|3-3-3-3-3-3-3-3|-5-5-5-5-5-5-5-5|10-10-10-10-10-10-10-10|-9-9-9-9-9-9-9-9|
4|3-3-3-3-3-3-3-3|-5-5-5-5-5-5-5-5|10-10-10-10-10-10-10-10|-9-9-9-9-9-9-9-9|
5|1-1-1-1-1-1-1-1|-3-3-3-3-3-3-3-3|8--8--8--8--8--8--8--8-|-7-7-7-7-7-7-7-7|
6|

3|3-3-3-3-3-3-3-3-|-5-5-5-5-5-5-5-5-|-7-7-7-7-7-7-7-7|-7-7-7-7-10-10-10-10|
4|3-3-3-3-3-3-3-3-|-5-5-5-5-5-5-5-5-|-7-7-7-7-7-7-7-7|-7-7-7-7-10-10-10-10|
5|1-1-1-1-1-1-1-1-|-3-3-3-3-3-3-3-3-|-5-5-5-5-5-5-5-5|-5-5-5-5-8--8--8--8-|
6|

3|3-3-3-3-3-3-3-3|3|
4|3-3-3-3-3-3-3-3|3|
5|1-1-1-1-1-1-1-1|1|

3|3-3-3-3-3-3-3-3-|-5-5-5-5-5-5-5-5-|-7-7-7-7-7-7-7-7|-7-7-7-7-10-10-10-10|
4|3-3-3-3-3-3-3-3-|-5-5-5-5-5-5-5-5-|-7-7-7-7-7-7-7-7|-7-7-7-7-10-10-10-10|
5|1-1-1-1-1-1-1-1-|-3-3-3-3-3-3-3-3-|-5-5-5-5-5-5-5-5|-5-5-5-5-8--8--8--8-|
6|

3|3-3-3-3-3-3-3-3|-5-5-5-5-5-5-5-5|10-10-10-10-10-10-10-10|-9-9-9-9-9-9-9-9|
4|3-3-3-3-3-3-3-3|-5-5-5-5-5-5-5-5|10-10-10-10-10-10-10-10|-9-9-9-9-9-9-9-9|
5|1-1-1-1-1-1-1-1|-3-3-3-3-3-3-3-3|8--8--8--8--8--8--8--8-|-7-7-7-7-7-7-7-7|
6|

3|3-3-3-3-3-3-3-3-|-5-5-5-5-5-5-5-5-|-7-7-7-7-7-7-7-7|-7-7-7-7-10-10-10-10|
4|3-3-3-3-3-3-3-3-|-5-5-5-5-5-5-5-5-|-7-7-7-7-7-7-7-7|-7-7-7-7-10-10-10-10|
5|1-1-1-1-1-1-1-1-|-3-3-3-3-3-3-3-3-|-5-5-5-5-5-5-5-5|-5-5-5-5-8--8--8--8-|
6|

3|3-3-3-3-3-3-3-3|-5-5-5-5-5-5-5-5|10-10-10-10-10-10-10-10|-9-9-9-9-9-9-9-9|
4|3-3-3-3-3-3-3-3|-5-5-5-5-5-5-5-5|10-10-10-10-10-10-10-10|-9-9-9-9-9-9-9-9|
5|1-1-1-1-1-1-1-1|-3-3-3-3-3-3-3-3|8--8--8--8--8--8--8--8-|-7-7-7-7-7-7-7-7|
6|

4|-3-3-3-3-3-L-L-L|-L-|--5-5--|--5-5--|
5|-3-3-3-3-3-L-L-L|-L-|--5-5--|--5-5--|
6|-1-1-1-1-1-L-L-L|-L-|--5-5--|--5-5--|


KONIEC ;d

Dodaj komentarz ...i/lub link do filmiku video

Zaloguj się do serwisu
Ostatnie komentarze
1.
Gilbert Wojaczek
2011-08-13 00:00
A można do tego po prostu chwyty?
Wszelkie materiały i wypowiedzi zamieszczone na www.chords.pl są własnością ich autorów.