Zacznij systematycznie uczyć się grać na gitarze razem ze stroną Moja nauka - będziesz miał/miała do niej dostęp po zalogowaniu się w serwisie

Dmuchawce Latawce Wiatr - Ewa Farna

Opracował -a: latarnik,
Dodał -a: latarnik,
Redaktor: petlica,
Pochodzi z: http://www.chords.pl/
Data publikacji: 2014-03-14 04:47
 
Moja nauka


Ups, problem :-/
Zaloguj się Mój śpiewnik


  C                    g        B   d    g       B  d    a     C  e   a      C  D
|------0----1--0-------3--3--6------1----3--3-6-----1--|-5-5-8--------5-5-8--------|
|-1--3---3-------3--1--3--------3---3----3-------3--3--|-5-----5--8---5------5--7--|
|-0--------------------3--------3---2----3-------3--2--|-5-----5--9---5------5--7--|
|-2-----------------------------3---0------------3--0--|-7-----5--9---7------5--7--|
|-3---------3-------------------1----------------1-----|-7-----3--7---7------3--5--|
|----------------------3-----------------3-------------|-5------------5------------|
                                                        (^)
  C                    g        B   d    g       B  d    a     C  e   a      C  D
|------0----1--0-------3--3--6------1----3--3-6-----1--|-5-5-8--------5-5-8--------|
|-1--3---3-------3--1--3--------3---3----3-------3--3--|-5-----5--8---5------5--7--|
|-0--------------------3--------3---2----3-------3--2--|-5-----5--9---5------5--7--|
|-2-----------------------------3---0------------3--0--|-7-----5--9---7------5--7--|
|-3---------3-------------------1----------------1-----|-7-----3--7---7------3--5--|
|----------------------3-----------------3-------------|-5------------5------------|
                                                        (^)
         G         e          G         G
|-----5----------------------------------------------|
|-7-8------3---3-----------------3--3------3---3-----|
|------------0---0----0---0--------0--0------0---0---|
|-----------------------2--2-------------------------|
|----------------------------------------------------|
|--------3---------0----------3---------3------------|


  G         e          G         G
|--------------------------------------------|
|---3---3-----------------3--3------3---3----|
|-----0---0----0---0--------0--0------0---0--|
|----------------2--2------------------------|
|--------------------------------------------|
|-3---------0----------3---------3-----------|


  a          e         C          C
|------------------------------------------|
|------------------------------------------|
|----2---2-----0--0-------0--0------0---0--|
|------2---2-----2--2-------2--2------2--2-|
|-0--------------------3----------3--------|
|------------0-----------------------------|


  a          e          D           D            D
|----------------------------------------------|-2-|
|--------------------------3---3-------3---3---|-3-|
|----2---2-----0--0----------2---2-------2---2-|-2-|
|------2---2-----2--2---0-----------0----------|-0-|
|-0--------------------------------------------|---|
|------------0---------------------------------|---|

Jest to moja luźna interpretacja utworu. Każdy może zmieniać i dodawać sobie dźwięki,
wedle własnego uznania. Ja jestem z tym OK.

Dodaj komentarz ...i/lub link do filmiku video

Zaloguj się do serwisu
Ostatnie komentarze
1.
rudmila83
2014-03-21 01:21
uwielbiam tą nutę :)
2.
wroblenka90
2014-03-20 10:28
Super piosenka :)
Wszelkie materiały i wypowiedzi zamieszczone na www.chords.pl są własnością ich autorów.