Zacznij systematycznie uczyć się grać na gitarze razem ze stroną Moja nauka - będziesz miał/miała do niej dostęp po zalogowaniu się w serwisie

Marco Polo (tabs) - Szanty

Opracował -a: klimas93,
Redaktor: Tomek Pietrzkowski,
Pochodzi z: http://www.chords.pl
Data publikacji: 2008-08-08 00:01
 
Moja nauka


Ups, problem :-/
Zaloguj się Mój śpiewnik


Ref.:

E-|-0-----------------|
H-|----3--1--3--1--0--|
G-|-------------------|
D-|-------------------|
A-|-------------------|
E-|-------------------|

E-|----0--0--2-----0--|
H-|-0-----------3-----|
G-|-------------------|
D-|-------------------|
A-|-------------------|
E-|-------------------|

E-|-0-----------------|
H-|----3--1--3--1--0--|
G-|-------------------|
D-|-------------------|
A-|-------------------|
E-|-------------------|

E-|----0--0--2-----0--|
H-|-0-----------3-----|
G-|-------------------|
D-|-------------------|
A-|-------------------|
E-|-------------------|
Dodał: Bronek777, 2014-08-21 23:34
Opracowania video z komentarzy

Dodaj komentarz ...i/lub link do filmiku video

Zaloguj się do serwisu
Wszelkie materiały i wypowiedzi zamieszczone na www.chords.pl są własnością ich autorów.