Zacznij systematycznie uczyć się grać na gitarze razem ze stroną Moja nauka - będziesz miał/miała do niej dostęp po zalogowaniu się w serwisie

Bitwa - Szanty

Opracował -a: Naseio Emini,
Redaktor: Mariuszgit,
Pochodzi z: http://www.chords.pl
Data publikacji: 2008-08-26 00:01
 
Moja nauka


Ups, problem :-/
Zaloguj się Mój śpiewnik


zwrotka:
     e             D             C             a
E1 |-0-----0====-|-------------|-------------|------------|
H2 |----0--------|-3-----3====-|-1--3-1--0---|------------|
G3 |-------------|----2--------|-------------|-2=======---|
D4 |-------------|-------------|-------------|------------|
A5 |-------------|-------------|-------------|------------|
E6 |-------------|-------------|-------------|------------|

     e               D           G          H7
E1 |-------------|-------------|-------------|------------|
H2 |-------0-----|-------------|------------0|=========---|
G3 |-0--2-----0==|==-2--2-0----|-0--0--0--2--|------------|
D4 |-------------|-----------4-|-------------|------------|
A5 |-------------|-------------|-------------|------------|
E6 |-------------|-------------|-------------|------------|

     e             D             C             a
E1 |-0-----0====-|-------------|-------------|------------|
H2 |----0--------|-3-----3====-|-1--3-1--0---|------------|
G3 |-------------|----2--------|-------------|-2=======---|
D4 |-------------|-------------|-------------|------------|
A5 |-------------|-------------|-------------|------------|
E6 |-------------|-------------|-------------|------------|

     e               D           G          H7
E1 |-------------|-------------|-------------|------------|
H2 |-------0-----|-------------|-------------|-0----------|
G3 |-0--2-----0==|==-2--2-0----|-0--0--0--2--|----2--0----|
D4 |-------------|-----------4-|-------------|----------4-|
A5 |-------------|-------------|-------------|------------|
E6 |-------------|-------------|-------------|------------|

refren:
     G             D             e             h
E1 |-------------|-------------|-------------|------------|
H2 |-------0==---|-------------|-------------|------------|
G3 |-0==---------|-2--0--------|-------------|------------|
D4 |-------------|-------4--0--|-2-----0-----|----0-------|
A5 |-------------|-------------|-------------|-2----------|
E6 |-------------|-------------|-------------|------------|

     C             D             e
E1 |-------------|-------------|-------------|
H2 |-------------|-------------|-------------|            _
G3 |-----0-------|-2--2--------|-------------|    \  /   / \
D4 |-2=4---------|-------4-----|-------------|     \/      /
A5 |-------------|----------5--|-7~~~~~~~~~~-|     /\     /
E6 |-------------|-------------|-------------|    /  \   /__


1.
 e          D              C         a
 Okręt nasz wpłynął w mgłę i fregaty dwie

 e         D             G             H7
 Popłynęły naszym kursem by nie zgubić się.

 e            D            C            a
 Potem szkwał wypchnął nas poza mleczny pas

 e            D                 G          H7
 I nikt wtedy nie przypuszczał, że fregaty śmierć nam niosą.



 Ref.
   G      D           e       h
   Ciepła krew poleje się strugami,

   C         D           e
   Wygra ten kto utrzyma szyk.

   G            D              e     h
   W huku dział ktoś przykryje się falami,

   C          D       e
   Jak da Bóg ocalimy bryg.

Nagły huk w uszach grał i już atak trwał,
To fregaty uzbrojone rzędem w setkę dział.
Czarny dym spowił nas, przyszedł śmierci czas.
Krzyk i lament mych kamratów, przerywany ogniem katów.

Pocisk nasz trafił w maszt, usłyszałem trzask,
To sterburtę rozwaliła jedna z naszych salw.
"Żagiel staw" krzyknął ktoś, znów piratów złość,
Bo od rufy nam powiało, a fregatom w mordę wiało.

Z fregat dwóch tylko ta pierwsza w pogoń szła,
Wnet abordaż rozpoczęli gdy dopadli nas.
Szyper ich dziury dwie zrobił w swoim dnie,
Nie pomogło to psubratom, reszta z rei zwisa za to.

Po dziś dzień tamtą mgłę i fregaty dwie,
Kiedy noc zamyka oczy widzę w swoim śnie.
Tamci co śpią na dnie, uśmiechają się,
Że ich straszną śmierć pomścili bracia, którzy zwyciężyli

Dodaj komentarz ...i/lub link do filmiku video

Zaloguj się do serwisu
Ostatnie komentarze
1.
dyjasek
2010-07-21 10:55
w tabach jest błąd przy refrenie (w huku dział) - zła tonacja, któś potrafi to poprawić?
2.
artek7
2009-09-21 16:24
początek dobry, ale czy nie łatwiej napisać po prostu, że w kółko się gra e D C a e D G H7
3.
yamakashi
2009-02-07 19:40
pełen profesjonalizm ;) tak powinna być przełożona każda piosenka. No i najlepsza tonacja według mnie. Pozdrawiam.
Wszelkie materiały i wypowiedzi zamieszczone na www.chords.pl są własnością ich autorów.