Zacznij systematycznie uczyć się grać na gitarze razem ze stroną Moja nauka - będziesz miał/miała do niej dostęp po zalogowaniu się w serwisie

Dziesięć w skali Beauforta (tab) - Szanty

Dodał -a: Yamaha,
Redaktor: Tomek Pietrzkowski,
Data publikacji: 2010-01-20 10:44
 
Moja nauka


Ups, problem :-/
Zaloguj się Mój śpiewnik


E-|---------------------------------------------------------------------------|
B-|--------------------------------------------------3--3--------3--3---------|
G-|----------------0--0------0--0-----0--2-----------------3-----------2------|
D-|----3--3--0--0--------2---------2--------3--0---0----------0---------------|
A-|-0-------------------------------------------------------------------------|
E-|---------------------------------------------------------------------------|


E-|----------0--0-------------------------------------------------------------|
B-|-3--3--3--------2------------3--1--------3--3--1-----3--3------------------|
G-|-------------------2------2--------2-----------------------2--0------------|
D-|--------------------------------------3-----------3--------------3---0-----|
A-|---------------------------------------------------------------------------|
E-|---------------------------------------------------------------------------|


E-|---------------------------------------------------------------------------|
B-|-----3--3--1--------------------------3--3--3--2--3--3---------------------|
G-|--------------0---2---0h2p0--------2---------------------------------------|
D-|-0---------------------------3---------------------------------------------|
A-|---------------------------------------------------------------------------|
E-|---------------------------------------------------------------------------|
Dodał: Bronek777, 2014-08-21 23:21
Opracowania video z komentarzy

Dodaj komentarz ...i/lub link do filmiku video

Zaloguj się do serwisu
Wszelkie materiały i wypowiedzi zamieszczone na www.chords.pl są własnością ich autorów.